  0
SECTION
  2
HEADER
  9
$ACADVER
  1
AC1015
  9
$ACADMAINTVER
 70
     6
  9
$DWGCODEPAGE
  3
ANSI_1254
  9
$INSBASE
 10
0.0
 20
0.0
 30
0.0
  9
$EXTMIN
 10
0.0
 20
0.0
 30
0.0
  9
$EXTMAX
 10
279.4
 20
215.9
 30
0.0
  9
$LIMMIN
 10
0.0
 20
0.0
  9
$LIMMAX
 10
279.4
 20
215.9
  9
$ORTHOMODE
 70
     0
  9
$REGENMODE
 70
     1
  9
$FILLMODE
 70
     1
  9
$QTEXTMODE
 70
     0
  9
$MIRRTEXT
 70
     1
  9
$LTSCALE
 40
1.0
  9
$ATTMODE
 70
     1
  9
$TEXTSIZE
 40
3.5
  9
$TRACEWID
 40
1.0
  9
$TEXTSTYLE
  7
Standard
  9
$CLAYER
  8
0
  9
$CELTYPE
  6
ByLayer
  9
$CECOLOR
 62
   256
  9
$CELTSCALE
 40
1.0
  9
$DISPSILH
 70
     0
  9
$DIMSCALE
 40
1.0
  9
$DIMASZ
 40
3.5
  9
$DIMEXO
 40
1.0
  9
$DIMDLI
 40
3.75
  9
$DIMRND
 40
0.0
  9
$DIMDLE
 40
0.0
  9
$DIMEXE
 40
1.0
  9
$DIMTP
 40
0.0
  9
$DIMTM
 40
0.0
  9
$DIMTXT
 40
3.5
  9
$DIMCEN
 40
2.5
  9
$DIMTSZ
 40
0.0
  9
$DIMTOL
 70
     0
  9
$DIMLIM
 70
     0
  9
$DIMTIH
 70
     1
  9
$DIMTOH
 70
     1
  9
$DIMSE1
 70
     0
  9
$DIMSE2
 70
     0
  9
$DIMTAD
 70
     1
  9
$DIMZIN
 70
     0
  9
$DIMBLK
  1

  9
$DIMASO
 70
     1
  9
$DIMSHO
 70
     1
  9
$DIMPOST
  1

  9
$DIMAPOST
  1

  9
$DIMALT
 70
     0
  9
$DIMALTD
 70
     3
  9
$DIMALTF
 40
0.0393700787
  9
$DIMLFAC
 40
1.0
  9
$DIMTOFL
 70
     1
  9
$DIMTVP
 40
0.0
  9
$DIMTIX
 70
     0
  9
$DIMSOXD
 70
     0
  9
$DIMSAH
 70
     0
  9
$DIMBLK1
  1

  9
$DIMBLK2
  1

  9
$DIMSTYLE
  2
ISO-25
  9
$DIMCLRD
 70
     0
  9
$DIMCLRE
 70
     0
  9
$DIMCLRT
 70
     0
  9
$DIMTFAC
 40
1.0
  9
$DIMGAP
 40
1.524
  9
$DIMJUST
 70
     0
  9
$DIMSD1
 70
     0
  9
$DIMSD2
 70
     0
  9
$DIMTOLJ
 70
     0
  9
$DIMTZIN
 70
     0
  9
$DIMALTZ
 70
     0
  9
$DIMALTTZ
 70
     0
  9
$DIMUPT
 70
     0
  9
$DIMDEC
 70
     2
  9
$DIMTDEC
 70
     2
  9
$DIMALTU
 70
     2
  9
$DIMALTTD
 70
     3
  9
$DIMTXSTY
  7
Standard
  9
$DIMAUNIT
 70
     0
  9
$DIMADEC
 70
     2
  9
$DIMALTRND
 40
0.0
  9
$DIMAZIN
 70
     0
  9
$DIMDSEP
 70
    44
  9
$DIMATFIT
 70
     3
  9
$DIMFRAC
 70
     0
  9
$DIMLDRBLK
  1

  9
$DIMLUNIT
 70
     2
  9
$DIMLWD
 70
    -2
  9
$DIMLWE
 70
    -2
  9
$DIMTMOVE
 70
     0
  9
$LUNITS
 70
     2
  9
$LUPREC
 70
     2
  9
$SKETCHINC
 40
1.0
  9
$FILLETRAD
 40
10.0
  9
$AUNITS
 70
     0
  9
$AUPREC
 70
     2
  9
$MENU
  1
.
  9
$ELEVATION
 40
0.0
  9
$PELEVATION
 40
0.0
  9
$THICKNESS
 40
0.0
  9
$LIMCHECK
 70
     0
  9
$CHAMFERA
 40
0.0
  9
$CHAMFERB
 40
0.0
  9
$CHAMFERC
 40
0.0
  9
$CHAMFERD
 40
0.0
  9
$SKPOLY
 70
     0
  9
$TDCREATE
 40
2459741.604539803
  9
$TDUCREATE
 40
2459741.479539803
  9
$TDUPDATE
 40
2459741.604539989
  9
$TDUUPDATE
 40
2459741.479539989
  9
$TDINDWG
 40
0.0000000116
  9
$TDUSRTIMER
 40
0.0000000116
  9
$USRTIMER
 70
     1
  9
$ANGBASE
 50
0.0
  9
$ANGDIR
 70
     0
  9
$PDMODE
 70
     0
  9
$PDSIZE
 40
-1.0
  9
$PLINEWID
 40
0.0
  9
$SPLFRAME
 70
     0
  9
$SPLINETYPE
 70
     6
  9
$SPLINESEGS
 70
     8
  9
$HANDSEED
  5
120
  9
$SURFTAB1
 70
     6
  9
$SURFTAB2
 70
     6
  9
$SURFTYPE
 70
     6
  9
$SURFU
 70
     6
  9
$SURFV
 70
     6
  9
$UCSBASE
  2

  9
$UCSNAME
  2

  9
$UCSORG
 10
0.0
 20
0.0
 30
0.0
  9
$UCSXDIR
 10
1.0
 20
0.0
 30
0.0
  9
$UCSYDIR
 10
0.0
 20
1.0
 30
0.0
  9
$UCSORTHOREF
  2

  9
$UCSORTHOVIEW
 70
     0
  9
$UCSORGTOP
 10
0.0
 20
0.0
 30
0.0
  9
$UCSORGBOTTOM
 10
0.0
 20
0.0
 30
0.0
  9
$UCSORGLEFT
 10
0.0
 20
0.0
 30
0.0
  9
$UCSORGRIGHT
 10
0.0
 20
0.0
 30
0.0
  9
$UCSORGFRONT
 10
0.0
 20
0.0
 30
0.0
  9
$UCSORGBACK
 10
0.0
 20
0.0
 30
0.0
  9
$PUCSBASE
  2

  9
$PUCSNAME
  2

  9
$PUCSORG
 10
0.0
 20
0.0
 30
0.0
  9
$PUCSXDIR
 10
1.0
 20
0.0
 30
0.0
  9
$PUCSYDIR
 10
0.0
 20
1.0
 30
0.0
  9
$PUCSORTHOREF
  2

  9
$PUCSORTHOVIEW
 70
     0
  9
$PUCSORGTOP
 10
0.0
 20
0.0
 30
0.0
  9
$PUCSORGBOTTOM
 10
0.0
 20
0.0
 30
0.0
  9
$PUCSORGLEFT
 10
0.0
 20
0.0
 30
0.0
  9
$PUCSORGRIGHT
 10
0.0
 20
0.0
 30
0.0
  9
$PUCSORGFRONT
 10
0.0
 20
0.0
 30
0.0
  9
$PUCSORGBACK
 10
0.0
 20
0.0
 30
0.0
  9
$USERI1
 70
     0
  9
$USERI2
 70
     0
  9
$USERI3
 70
     0
  9
$USERI4
 70
     0
  9
$USERI5
 70
     0
  9
$USERR1
 40
0.0
  9
$USERR2
 40
0.0
  9
$USERR3
 40
0.0
  9
$USERR4
 40
0.0
  9
$USERR5
 40
0.0
  9
$WORLDVIEW
 70
     1
  9
$SHADEDGE
 70
     3
  9
$SHADEDIF
 70
    70
  9
$TILEMODE
 70
     1
  9
$MAXACTVP
 70
    64
  9
$PINSBASE
 10
0.0
 20
0.0
 30
0.0
  9
$PLIMCHECK
 70
     0
  9
$PEXTMIN
 10
1.0000000000E+20
 20
1.0000000000E+20
 30
1.0000000000E+20
  9
$PEXTMAX
 10
-1.0000000000E+20
 20
-1.0000000000E+20
 30
-1.0000000000E+20
  9
$PLIMMIN
 10
0.0
 20
0.0
  9
$PLIMMAX
 10
420.0
 20
297.0
  9
$UNITMODE
 70
     0
  9
$VISRETAIN
 70
     1
  9
$PLINEGEN
 70
     0
  9
$PSLTSCALE
 70
     1
  9
$TREEDEPTH
 70
  3020
  9
$CMLSTYLE
  2
Standard
  9
$CMLJUST
 70
     0
  9
$CMLSCALE
 40
20.0
  9
$PROXYGRAPHICS
 70
     1
  9
$MEASUREMENT
 70
     1
  9
$CELWEIGHT
370
    -1
  9
$ENDCAPS
280
     0
  9
$JOINSTYLE
280
     0
  9
$LWDISPLAY
290
     1
  9
$INSUNITS
 70
     4
  9
$HYPERLINKBASE
  1

  9
$STYLESHEET
  1

  9
$XEDIT
290
     1
  9
$CEPSNTYPE
380
     0
  9
$PSTYLEMODE
290
     1
  9
$FINGERPRINTGUID
  2
{c9e69e12-8c63-4dce-8065-3d9af7c72d7f}
  9
$VERSIONGUID
  2
{FAEB1C32-E019-11D5-929B-00C0DF256EC4}
  9
$EXTNAMES
290
     1
  9
$PSVPSCALE
 40
0.0
  9
$OLESTARTUP
290
     0
  0
ENDSEC
  0
SECTION
  2
CLASSES
  0
CLASS
  1
ACDBDICTIONARYWDFLT
  2
AcDbDictionaryWithDefault
  3
ObjectDBX Classes
 90
        0
280
     0
281
     0
  0
CLASS
  1
VISUALSTYLE
  2
AcDbVisualStyle
  3
ObjectDBX Classes
 90
     4095
280
     0
281
     0
  0
CLASS
  1
MATERIAL
  2
AcDbMaterial
  3
ObjectDBX Classes
 90
     1153
280
     0
281
     0
  0
CLASS
  1
SCALE
  2
AcDbScale
  3
ObjectDBX Classes
 90
     1153
280
     0
281
     0
  0
CLASS
  1
TABLESTYLE
  2
AcDbTableStyle
  3
ObjectDBX Classes
 90
     4095
280
     0
281
     0
  0
CLASS
  1
MLEADERSTYLE
  2
AcDbMLeaderStyle
  3
ACDB_MLEADERSTYLE_CLASS
 90
     4095
280
     0
281
     0
  0
CLASS
  1
SUN
  2
AcDbSun
  3
SCENEOE
 90
     1153
280
     0
281
     0
  0
CLASS
  1
ACDBPLACEHOLDER
  2
AcDbPlaceHolder
  3
ObjectDBX Classes
 90
        0
280
     0
281
     0
  0
CLASS
  1
LAYOUT
  2
AcDbLayout
  3
ObjectDBX Classes
 90
        0
280
     0
281
     0
  0
ENDSEC
  0
SECTION
  2
TABLES
  0
TABLE
  2
VPORT
  5
8
330
0
100
AcDbSymbolTable
 70
     1
  0
VPORT
  5
29
330
8
100
AcDbSymbolTableRecord
100
AcDbViewportTableRecord
  2
*Active
 70
     0
 10
0.0
 20
0.0
 11
1.0
 21
1.0
 12
139.7
 22
107.95
 13
0.0
 23
0.0
 14
10.0
 24
10.0
 15
10.0
 25
10.0
 16
0.0
 26
0.0
 36
1.0
 17
0.0
 27
0.0
 37
0.0
 40
215.9
 41
1.2941176471
 42
50.0
 43
0.0
 44
0.0
 50
0.0
 51
0.0
 71
     0
 72
  2000
 73
     1
 74
     3
 75
     0
 76
     0
 77
     0
 78
     0
281
     0
 65
     1
110
0.0
120
0.0
130
0.0
111
1.0
121
0.0
131
0.0
112
0.0
122
1.0
132
0.0
 79
     0
146
0.0
  0
ENDTAB
  0
TABLE
  2
LTYPE
  5
5
330
0
100
AcDbSymbolTable
 70
     6
  0
LTYPE
  5
14
330
5
100
AcDbSymbolTableRecord
100
AcDbLinetypeTableRecord
  2
ByBlock
 70
     0
  3

 72
    65
 73
     0
 40
0.0
  0
LTYPE
  5
15
330
5
100
AcDbSymbolTableRecord
100
AcDbLinetypeTableRecord
  2
ByLayer
 70
     0
  3

 72
    65
 73
     0
 40
0.0
  0
LTYPE
  5
16
330
5
100
AcDbSymbolTableRecord
100
AcDbLinetypeTableRecord
  2
Continuous
 70
     0
  3
Solid line
 72
    65
 73
     0
 40
0.0
  0
LTYPE
  5
6E
330
5
100
AcDbSymbolTableRecord
100
AcDbLinetypeTableRecord
  2
HIDDEN
 70
     0
  3
Hidden __ __ __ __ __ __ __ __ __ __ __ __ __ __
 72
    65
 73
     2
 40
1.905
 49
1.27
 74
     0
 49
-0.635
 74
     0
  0
LTYPE
  5
6F
330
5
100
AcDbSymbolTableRecord
100
AcDbLinetypeTableRecord
  2
PHANTOM
 70
     0
  3
Phantom ______  __  __  ______  __  __  ______
 72
    65
 73
     6
 40
12.7
 49
6.35
 74
     0
 49
-1.27
 74
     0
 49
1.27
 74
     0
 49
-1.27
 74
     0
 49
1.27
 74
     0
 49
-1.27
 74
     0
  0
LTYPE
  5
70
330
5
100
AcDbSymbolTableRecord
100
AcDbLinetypeTableRecord
  2
CENTER
 70
     0
  3
Center ____ _ ____ _ ____ _ ____ _ ____ _ ____
 72
    65
 73
     4
 40
10.16
 49
6.35
 74
     0
 49
-1.27
 74
     0
 49
1.27
 74
     0
 49
-1.27
 74
     0
  0
LTYPE
  5
71
330
5
100
AcDbSymbolTableRecord
100
AcDbLinetypeTableRecord
  2
CENTERX2
 70
     0
  3
Center (2x) ________  __  ________  __  _____
 72
    65
 73
     4
 40
20.32
 49
12.7
 74
     0
 49
-2.54
 74
     0
 49
2.54
 74
     0
 49
-2.54
 74
     0
  0
LTYPE
  5
72
330
5
100
AcDbSymbolTableRecord
100
AcDbLinetypeTableRecord
  2
DOT2
 70
     0
  3
Dot (.5x) ........................................
 72
    65
 73
     2
 40
0.635
 49
0.0
 74
     0
 49
-0.635
 74
     0
  0
ENDTAB
  0
TABLE
  2
LAYER
  5
2
330
0
100
AcDbSymbolTable
 70
    17
  0
LAYER
  5
10
330
2
100
AcDbSymbolTableRecord
100
AcDbLayerTableRecord
  2
0
 70
     0
 62
     7
  6
Continuous
370
    -3
390
F
  0
LAYER
  5
73
330
2
100
AcDbSymbolTableRecord
100
AcDbLayerTableRecord
  2
FORMAT
 70
     0
 62
     7
  6
Continuous
370
    -3
390
F
  0
LAYER
  5
74
330
2
100
AcDbSymbolTableRecord
100
AcDbLayerTableRecord
  2
YARDIMCI_GEOMETRI
 70
     0
 62
    -6
  6
Continuous
290
     0
370
    -3
390
F
  0
LAYER
  5
75
330
2
100
AcDbSymbolTableRecord
100
AcDbLayerTableRecord
  2
SAYFA_CERCEVESI
 70
     0
 62
     7
  6
Continuous
370
    25
390
F
  0
LAYER
  5
76
330
2
100
AcDbSymbolTableRecord
100
AcDbLayerTableRecord
  2
ANTET
 70
     0
 62
     7
  6
Continuous
370
    -3
390
F
  0
LAYER
  5
77
330
2
100
AcDbSymbolTableRecord
100
AcDbLayerTableRecord
  2
OLCU
 70
     0
 62
   150
  6
Continuous
370
    -3
390
F
  0
LAYER
  5
78
330
2
100
AcDbSymbolTableRecord
100
AcDbLayerTableRecord
  2
METIN
 70
     0
 62
    96
  6
Continuous
370
    -3
390
F
  0
LAYER
  5
79
330
2
100
AcDbSymbolTableRecord
100
AcDbLayerTableRecord
  2
BALON
 70
     0
 62
     5
  6
Continuous
370
    -3
390
F
  0
LAYER
  5
7A
330
2
100
AcDbSymbolTableRecord
100
AcDbLayerTableRecord
  2
VURGU
 70
     0
 62
     7
  6
Continuous
370
    -3
390
F
  0
LAYER
  5
7B
330
2
100
AcDbSymbolTableRecord
100
AcDbLayerTableRecord
  2
SILIK
 70
     0
 62
     7
  6
Continuous
370
    -3
390
F
  0
LAYER
  5
7C
330
2
100
AcDbSymbolTableRecord
100
AcDbLayerTableRecord
  2
MODEL
 70
     0
 62
     7
  6
Continuous
370
    -3
390
F
  0
LAYER
  5
7D
330
2
100
AcDbSymbolTableRecord
100
AcDbLayerTableRecord
  2
DETAYLANDıRMA
 70
     0
 62
   190
  6
Continuous
370
    -3
390
F
  0
LAYER
  5
7E
330
2
100
AcDbSymbolTableRecord
100
AcDbLayerTableRecord
  2
TOLERANS
 70
     0
 62
   230
  6
Continuous
370
    -3
390
F
  0
LAYER
  5
7F
330
2
100
AcDbSymbolTableRecord
100
AcDbLayerTableRecord
  2
MERKEZ_CIZGILERI
 70
     0
 62
    30
  6
Continuous
370
    -3
390
F
  0
LAYER
  5
80
330
2
100
AcDbSymbolTableRecord
100
AcDbLayerTableRecord
  2
KESIT-DETAY_CIZGILERI
 70
     0
 62
     7
  6
Continuous
370
    -3
390
F
  0
LAYER
  5
81
330
2
100
AcDbSymbolTableRecord
100
AcDbLayerTableRecord
  2
\U+041E\U+0421\U+0415\U+0412\U+042B\U+0415
 70
     0
 62
     7
  6
Continuous
370
    -3
390
F
  0
LAYER
  5
82
330
2
100
AcDbSymbolTableRecord
100
AcDbLayerTableRecord
  2
\U+0412\U+041E\U+0414\U+042F\U+041D\U+042B\U+0415_\U+0417\U+041D\U+0410\U+041A\U+0418
 70
     0
 62
    11
  6
Continuous
370
    -3
390
F
  0
ENDTAB
  0
TABLE
  2
STYLE
  5
3
330
0
100
AcDbSymbolTable
 70
     1
  0
STYLE
  5
11
330
3
100
AcDbSymbolTableRecord
100
AcDbTextStyleTableRecord
  2
Standard
 70
     0
 40
0.0
 41
1.0
 50
0.0
 71
     0
 42
3.5
  3
txt
  4

  0
ENDTAB
  0
TABLE
  2
VIEW
  5
6
330
0
100
AcDbSymbolTable
 70
     0
  0
ENDTAB
  0
TABLE
  2
UCS
  5
7
330
0
100
AcDbSymbolTable
 70
     0
  0
ENDTAB
  0
TABLE
  2
APPID
  5
9
330
0
100
AcDbSymbolTable
 70
     1
  0
APPID
  5
12
330
9
100
AcDbSymbolTableRecord
100
AcDbRegAppTableRecord
  2
ACAD
 70
     0
  0
ENDTAB
  0
TABLE
  2
DIMSTYLE
  5
A
330
0
100
AcDbSymbolTable
 70
     1
100
AcDbDimStyleTable
  0
DIMSTYLE
105
27
330
A
100
AcDbSymbolTableRecord
100
AcDbDimStyleTableRecord
  2
ISO-25
 70
     0
 41
2.5
 42
0.625
 43
3.75
 44
1.25
 73
     0
 74
     0
 77
     1
 78
     8
140
2.5
141
2.5
143
0.0393700787
147
0.625
171
     3
172
     1
178
     0
271
     2
272
     2
274
     3
278
    44
283
     0
284
     8
340
11
  0
ENDTAB
  0
TABLE
  2
BLOCK_RECORD
  5
1
330
0
100
AcDbSymbolTable
 70
     5
  0
BLOCK_RECORD
  5
1F
330
1
100
AcDbSymbolTableRecord
100
AcDbBlockTableRecord
  2
*Model_Space
340
22
  0
BLOCK_RECORD
  5
1B
330
1
100
AcDbSymbolTableRecord
100
AcDbBlockTableRecord
  2
*Paper_Space
340
1E
  0
BLOCK_RECORD
  5
23
330
1
100
AcDbSymbolTableRecord
100
AcDbBlockTableRecord
  2
*Paper_Space0
340
26
  0
BLOCK_RECORD
  5
A5
330
1
100
AcDbSymbolTableRecord
100
AcDbBlockTableRecord
  2
SW_CENTERMARKSYMBOL_0
340
0
102
{BLKREFS
331
B0
102
}
  0
BLOCK_RECORD
  5
C1
330
1
100
AcDbSymbolTableRecord
100
AcDbBlockTableRecord
  2
SW_CENTERMARKSYMBOL_1
340
0
102
{BLKREFS
331
CC
102
}
  0
BLOCK_RECORD
  5
DE
330
1
100
AcDbSymbolTableRecord
100
AcDbBlockTableRecord
  2
SW_CENTERMARKSYMBOL_2
340
0
102
{BLKREFS
331
E9
102
}
  0
BLOCK_RECORD
  5
F9
330
1
100
AcDbSymbolTableRecord
100
AcDbBlockTableRecord
  2
SW_CENTERMARKSYMBOL_3
340
0
102
{BLKREFS
331
104
102
}
  0
ENDTAB
  0
ENDSEC
  0
SECTION
  2
BLOCKS
  0
BLOCK
  5
20
330
1F
100
AcDbEntity
  8
0
100
AcDbBlockBegin
  2
*Model_Space
 70
     0
 10
0.0
 20
0.0
 30
0.0
  3
*Model_Space
  1

  0
ENDBLK
  5
21
330
1F
100
AcDbEntity
  8
0
100
AcDbBlockEnd
  0
BLOCK
  5
1C
330
1B
100
AcDbEntity
 67
     1
  8
0
100
AcDbBlockBegin
  2
*Paper_Space
 70
     0
 10
0.0
 20
0.0
 30
0.0
  3
*Paper_Space
  1

  0
ENDBLK
  5
1D
330
1B
100
AcDbEntity
 67
     1
  8
0
100
AcDbBlockEnd
  0
BLOCK
  5
24
330
23
100
AcDbEntity
  8
0
100
AcDbBlockBegin
  2
*Paper_Space0
 70
     0
 10
0.0
 20
0.0
 30
0.0
  3
*Paper_Space0
  1

  0
ENDBLK
  5
25
330
23
100
AcDbEntity
  8
0
100
AcDbBlockEnd
  0
BLOCK
  5
A6
330
A5
100
AcDbEntity
  8
0
100
AcDbBlockBegin
  2
SW_CENTERMARKSYMBOL_0
 70
     0
 10
0.0
 20
0.0
 30
0.0
  3
SW_CENTERMARKSYMBOL_0
  1

  0
LINE
  5
A8
330
A5
100
AcDbEntity
  8
FORMAT
 62
     0
100
AcDbLine
 10
0.0
 20
0.0
 30
0.0
 11
0.0
 21
2.5
 31
0.0
  0
LINE
  5
A9
330
A5
100
AcDbEntity
  8
FORMAT
 62
     0
100
AcDbLine
 10
0.0
 20
0.0
 30
0.0
 11
-2.5
 21
0.0
 31
0.0
  0
LINE
  5
AA
330
A5
100
AcDbEntity
  8
FORMAT
 62
     0
100
AcDbLine
 10
0.0
 20
0.0
 30
0.0
 11
0.0
 21
-2.5
 31
0.0
  0
LINE
  5
AB
330
A5
100
AcDbEntity
  8
FORMAT
 62
     0
100
AcDbLine
 10
0.0
 20
0.0
 30
0.0
 11
2.5
 21
0.0
 31
0.0
  0
LINE
  5
AC
330
A5
100
AcDbEntity
  8
FORMAT
 62
     0
100
AcDbLine
 10
0.0
 20
5.0
 30
0.0
 11
0.0
 21
28.5
 31
0.0
  0
LINE
  5
AD
330
A5
100
AcDbEntity
  8
FORMAT
 62
     0
100
AcDbLine
 10
-5.0
 20
0.0
 30
0.0
 11
-28.5
 21
0.0
 31
0.0
  0
LINE
  5
AE
330
A5
100
AcDbEntity
  8
FORMAT
 62
     0
100
AcDbLine
 10
0.0
 20
-5.0
 30
0.0
 11
0.0
 21
-28.5
 31
0.0
  0
LINE
  5
AF
330
A5
100
AcDbEntity
  8
FORMAT
 62
     0
100
AcDbLine
 10
5.0
 20
0.0
 30
0.0
 11
28.5
 21
0.0
 31
0.0
  0
ENDBLK
  5
A7
330
A5
100
AcDbEntity
  8
0
100
AcDbBlockEnd
  0
BLOCK
  5
C2
330
C1
100
AcDbEntity
  8
0
100
AcDbBlockBegin
  2
SW_CENTERMARKSYMBOL_1
 70
     0
 10
0.0
 20
0.0
 30
0.0
  3
SW_CENTERMARKSYMBOL_1
  1

  0
LINE
  5
C4
330
C1
100
AcDbEntity
  8
FORMAT
 62
     0
100
AcDbLine
 10
0.0
 20
0.0
 30
0.0
 11
0.0
 21
2.5
 31
0.0
  0
LINE
  5
C5
330
C1
100
AcDbEntity
  8
FORMAT
 62
     0
100
AcDbLine
 10
0.0
 20
0.0
 30
0.0
 11
-2.5
 21
0.0
 31
0.0
  0
LINE
  5
C6
330
C1
100
AcDbEntity
  8
FORMAT
 62
     0
100
AcDbLine
 10
0.0
 20
0.0
 30
0.0
 11
0.0
 21
-2.5
 31
0.0
  0
LINE
  5
C7
330
C1
100
AcDbEntity
  8
FORMAT
 62
     0
100
AcDbLine
 10
0.0
 20
0.0
 30
0.0
 11
2.5
 21
0.0
 31
0.0
  0
LINE
  5
C8
330
C1
100
AcDbEntity
  8
FORMAT
 62
     0
100
AcDbLine
 10
0.0
 20
5.0
 30
0.0
 11
0.0
 21
28.5
 31
0.0
  0
LINE
  5
C9
330
C1
100
AcDbEntity
  8
FORMAT
 62
     0
100
AcDbLine
 10
-5.0
 20
0.0
 30
0.0
 11
-28.5
 21
0.0
 31
0.0
  0
LINE
  5
CA
330
C1
100
AcDbEntity
  8
FORMAT
 62
     0
100
AcDbLine
 10
0.0
 20
-5.0
 30
0.0
 11
0.0
 21
-28.5
 31
0.0
  0
LINE
  5
CB
330
C1
100
AcDbEntity
  8
FORMAT
 62
     0
100
AcDbLine
 10
5.0
 20
0.0
 30
0.0
 11
28.5
 21
0.0
 31
0.0
  0
ENDBLK
  5
C3
330
C1
100
AcDbEntity
  8
0
100
AcDbBlockEnd
  0
BLOCK
  5
DF
330
DE
100
AcDbEntity
  8
0
100
AcDbBlockBegin
  2
SW_CENTERMARKSYMBOL_2
 70
     0
 10
0.0
 20
0.0
 30
0.0
  3
SW_CENTERMARKSYMBOL_2
  1

  0
LINE
  5
E1
330
DE
100
AcDbEntity
  8
FORMAT
 62
     0
100
AcDbLine
 10
0.0
 20
0.0
 30
0.0
 11
0.0
 21
2.5
 31
0.0
  0
LINE
  5
E2
330
DE
100
AcDbEntity
  8
FORMAT
 62
     0
100
AcDbLine
 10
0.0
 20
0.0
 30
0.0
 11
-2.5
 21
0.0
 31
0.0
  0
LINE
  5
E3
330
DE
100
AcDbEntity
  8
FORMAT
 62
     0
100
AcDbLine
 10
0.0
 20
0.0
 30
0.0
 11
0.0
 21
-2.5
 31
0.0
  0
LINE
  5
E4
330
DE
100
AcDbEntity
  8
FORMAT
 62
     0
100
AcDbLine
 10
0.0
 20
0.0
 30
0.0
 11
2.5
 21
0.0
 31
0.0
  0
LINE
  5
E5
330
DE
100
AcDbEntity
  8
FORMAT
 62
     0
100
AcDbLine
 10
0.0
 20
5.0
 30
0.0
 11
0.0
 21
28.5
 31
0.0
  0
LINE
  5
E6
330
DE
100
AcDbEntity
  8
FORMAT
 62
     0
100
AcDbLine
 10
-5.0
 20
0.0
 30
0.0
 11
-28.5
 21
0.0
 31
0.0
  0
LINE
  5
E7
330
DE
100
AcDbEntity
  8
FORMAT
 62
     0
100
AcDbLine
 10
0.0
 20
-5.0
 30
0.0
 11
0.0
 21
-28.5
 31
0.0
  0
LINE
  5
E8
330
DE
100
AcDbEntity
  8
FORMAT
 62
     0
100
AcDbLine
 10
5.0
 20
0.0
 30
0.0
 11
28.5
 21
0.0
 31
0.0
  0
ENDBLK
  5
E0
330
DE
100
AcDbEntity
  8
0
100
AcDbBlockEnd
  0
BLOCK
  5
FA
330
F9
100
AcDbEntity
  8
0
100
AcDbBlockBegin
  2
SW_CENTERMARKSYMBOL_3
 70
     0
 10
0.0
 20
0.0
 30
0.0
  3
SW_CENTERMARKSYMBOL_3
  1

  0
LINE
  5
FC
330
F9
100
AcDbEntity
  8
FORMAT
 62
     0
100
AcDbLine
 10
0.0
 20
0.0
 30
0.0
 11
0.0
 21
2.5
 31
0.0
  0
LINE
  5
FD
330
F9
100
AcDbEntity
  8
FORMAT
 62
     0
100
AcDbLine
 10
0.0
 20
0.0
 30
0.0
 11
-2.5
 21
0.0
 31
0.0
  0
LINE
  5
FE
330
F9
100
AcDbEntity
  8
FORMAT
 62
     0
100
AcDbLine
 10
0.0
 20
0.0
 30
0.0
 11
0.0
 21
-2.5
 31
0.0
  0
LINE
  5
FF
330
F9
100
AcDbEntity
  8
FORMAT
 62
     0
100
AcDbLine
 10
0.0
 20
0.0
 30
0.0
 11
2.5
 21
0.0
 31
0.0
  0
LINE
  5
100
330
F9
100
AcDbEntity
  8
FORMAT
 62
     0
100
AcDbLine
 10
0.0
 20
5.0
 30
0.0
 11
0.0
 21
28.5
 31
0.0
  0
LINE
  5
101
330
F9
100
AcDbEntity
  8
FORMAT
 62
     0
100
AcDbLine
 10
-5.0
 20
0.0
 30
0.0
 11
-28.5
 21
0.0
 31
0.0
  0
LINE
  5
102
330
F9
100
AcDbEntity
  8
FORMAT
 62
     0
100
AcDbLine
 10
0.0
 20
-5.0
 30
0.0
 11
0.0
 21
-28.5
 31
0.0
  0
LINE
  5
103
330
F9
100
AcDbEntity
  8
FORMAT
 62
     0
100
AcDbLine
 10
5.0
 20
0.0
 30
0.0
 11
28.5
 21
0.0
 31
0.0
  0
ENDBLK
  5
FB
330
F9
100
AcDbEntity
  8
0
100
AcDbBlockEnd
  0
ENDSEC
  0
SECTION
  2
ENTITIES
  0
LINE
  5
83
330
1F
100
AcDbEntity
  8
0
  6
Continuous
 62
     7
370
    25
100
AcDbLine
 10
85.1389803397
 20
92.9836886941
 30
0.0
 11
85.1389803397
 21
57.9836886941
 31
0.0
  0
LINE
  5
84
330
1F
100
AcDbEntity
  8
0
  6
Continuous
 62
     7
370
    25
100
AcDbLine
 10
137.1389803397
 20
57.9836886941
 30
0.0
 11
137.1389803397
 21
92.9836886941
 31
0.0
  0
ARC
  5
85
330
1F
100
AcDbEntity
  8
0
  6
Continuous
 62
     7
370
    25
100
AcDbCircle
 10
141.1389803397
 20
92.9836886941
 30
0.0
 40
4.0
100
AcDbArc
 50
90.0
 51
180.0
  0
ARC
  5
86
330
1F
100
AcDbEntity
  8
0
  6
Continuous
 62
     7
370
    25
100
AcDbCircle
 10
141.1389803397
 20
92.9836886941
 30
0.0
 40
56.0
100
AcDbArc
 50
90.0
 51
180.0
  0
LINE
  5
87
330
1F
100
AcDbEntity
  8
0
  6
Continuous
 62
     7
370
    25
100
AcDbLine
 10
176.1389803397
 20
148.9836886941
 30
0.0
 11
141.1389803397
 21
148.9836886941
 31
0.0
  0
LINE
  5
88
330
1F
100
AcDbEntity
  8
0
  6
Continuous
 62
     7
370
    25
100
AcDbLine
 10
141.1389803397
 20
96.9836886941
 30
0.0
 11
176.1389803397
 21
96.9836886941
 31
0.0
  0
CIRCLE
  5
89
330
1F
100
AcDbEntity
  8
0
  6
Continuous
 62
     7
370
    25
100
AcDbCircle
 10
111.1389803397
 20
67.9836886941
 30
0.0
 40
5.000000000000014
  0
CIRCLE
  5
8A
330
1F
100
AcDbEntity
  8
0
  6
Continuous
 62
     7
370
    25
100
AcDbCircle
 10
111.1389803397
 20
67.9836886941
 30
0.0
 40
7.000000000000014
  0
CIRCLE
  5
8B
330
1F
100
AcDbEntity
  8
0
  6
Continuous
 62
     7
370
    25
100
AcDbCircle
 10
166.1389803397
 20
122.9836886941
 30
0.0
 40
7.000000000000028
  0
CIRCLE
  5
8C
330
1F
100
AcDbEntity
  8
0
  6
Continuous
 62
     7
370
    25
100
AcDbCircle
 10
166.1389803397
 20
122.9836886941
 30
0.0
 40
5.0
  0
LINE
  5
8D
330
1F
100
AcDbEntity
  8
0
  6
Continuous
 62
     7
370
    25
100
AcDbLine
 10
111.1389803397
 20
57.9836886941
 30
0.0
 11
137.1389803397
 21
57.9836886941
 31
0.0
  0
LINE
  5
8E
330
1F
100
AcDbEntity
  8
0
  6
Continuous
 62
     7
370
    25
100
AcDbLine
 10
85.1389803397
 20
57.9836886941
 30
0.0
 11
111.1389803397
 21
57.9836886941
 31
0.0
  0
LINE
  5
8F
330
1F
100
AcDbEntity
  8
0
  6
Continuous
 62
     7
370
    25
100
AcDbLine
 10
176.1389803397
 20
122.9836886941
 30
0.0
 11
176.1389803397
 21
96.9836886941
 31
0.0
  0
LINE
  5
90
330
1F
100
AcDbEntity
  8
0
  6
Continuous
 62
     7
370
    25
100
AcDbLine
 10
176.1389803397
 20
148.9836886941
 30
0.0
 11
176.1389803397
 21
122.9836886941
 31
0.0
  0
LINE
  5
91
330
1F
100
AcDbEntity
  8
0
  6
Continuous
 62
     1
370
    25
100
AcDbLine
 10
111.1389803397
 20
92.9836886941
 30
0.0
 11
137.1389803397
 21
92.9836886941
 31
0.0
  0
LINE
  5
92
330
1F
100
AcDbEntity
  8
0
  6
Continuous
 62
     1
370
    25
100
AcDbLine
 10
85.1389803397
 20
92.9836886941
 30
0.0
 11
111.1389803397
 21
92.9836886941
 31
0.0
  0
LINE
  5
93
330
1F
100
AcDbEntity
  8
0
  6
Continuous
 62
     1
370
    25
100
AcDbLine
 10
141.1389803397
 20
122.9836886941
 30
0.0
 11
141.1389803397
 21
96.9836886941
 31
0.0
  0
LINE
  5
94
330
1F
100
AcDbEntity
  8
0
  6
Continuous
 62
     1
370
    25
100
AcDbLine
 10
141.1389803397
 20
148.9836886941
 30
0.0
 11
141.1389803397
 21
122.9836886941
 31
0.0
  0
LINE
  5
95
330
1F
100
AcDbEntity
  8
0
  6
Continuous
 62
     7
370
    25
100
AcDbLine
 10
-63.8993076754
 20
129.9836886941
 30
0.0
 11
-79.8539958506
 21
129.9836886941
 31
0.0
  0
LINE
  5
96
330
1F
100
AcDbEntity
  8
0
  6
Continuous
 62
     7
370
    25
100
AcDbLine
 10
-79.8539958506
 20
115.9836886941
 30
0.0
 11
-63.9008386888
 21
115.9836886941
 31
0.0
  0
LINE
  5
97
330
1F
100
AcDbEntity
  8
0
  6
Continuous
 62
     7
370
    25
100
AcDbLine
 10
-64.8539958506
 20
115.9836886941
 30
0.0
 11
-64.8539958506
 21
92.9836886941
 31
0.0
  0
LINE
  5
98
330
1F
100
AcDbEntity
  8
0
  6
Continuous
 62
     7
370
    25
100
AcDbLine
 10
-12.8539958506
 20
92.9836886941
 30
0.0
 11
-12.8539958506
 21
122.9836886941
 31
0.0
  0
LINE
  5
99
330
1F
100
AcDbEntity
  8
0
  6
Continuous
 62
     7
370
    25
100
AcDbLine
 10
-64.8539958506
 20
60.9836886941
 30
0.0
 11
-64.8539958506
 21
57.9836886941
 31
0.0
  0
LINE
  5
9A
330
1F
100
AcDbEntity
  8
0
  6
Continuous
 62
     7
370
    25
100
AcDbLine
 10
-64.8539958506
 20
92.9836886941
 30
0.0
 11
-64.8539958506
 21
74.9723710013
 31
0.0
  0
LINE
  5
9B
330
1F
100
AcDbEntity
  8
0
  6
Continuous
 62
     7
370
    25
100
AcDbLine
 10
-12.8539958506
 20
57.9836886941
 30
0.0
 11
-12.8539958506
 21
92.9836886941
 31
0.0
  0
LINE
  5
9C
330
1F
100
AcDbEntity
  8
0
  6
Continuous
 62
     7
370
    25
100
AcDbLine
 10
-64.8509705246
 20
74.9836886941
 30
0.0
 11
-79.8539958506
 21
74.9836886941
 31
0.0
  0
LINE
  5
9D
330
1F
100
AcDbEntity
  8
0
  6
Continuous
 62
     7
370
    25
100
AcDbLine
 10
-79.8539958506
 20
60.9836886941
 30
0.0
 11
-64.8539958506
 21
60.9836886941
 31
0.0
  0
CIRCLE
  5
9E
330
1F
100
AcDbEntity
  8
0
  6
Continuous
 62
     7
370
    25
100
AcDbCircle
 10
-38.8539958506
 20
122.9836886941
 30
0.0
 40
26.0
  0
CIRCLE
  5
9F
330
1F
100
AcDbEntity
  8
0
  6
Continuous
 62
     7
370
    25
100
AcDbCircle
 10
-38.8539958506
 20
122.9836886941
 30
0.0
 40
20.0
  0
LINE
  5
A0
330
1F
100
AcDbEntity
  8
0
  6
Continuous
 62
     7
370
    25
100
AcDbLine
 10
-79.8539958506
 20
129.9836886941
 30
0.0
 11
-79.8539958506
 21
115.9836886941
 31
0.0
  0
SPLINE
  5
A1
330
1F
100
AcDbEntity
  8
0
  6
Continuous
 62
     7
370
    25
100
AcDbSpline
210
0.0
220
0.0
230
1.0
 70
     8
 71
     3
 72
    26
 73
    22
 74
     0
 42
0.00000001
 43
0.00000001
 40
0.0
 40
0.0
 40
0.0
 40
0.0
 40
0.0516333363898263
 40
0.1047962893514218
 40
0.1564208821522518
 40
0.2094845500307915
 40
0.2622070182084795
 40
0.3164045673347076
 40
0.3699896842020551
 40
0.4251980407114851
 40
0.477529962741248
 40
0.5314698748620563
 40
0.5823674886978055
 40
0.6347117607297622
 40
0.6862313439828501
 40
0.7391519265833432
 40
0.7923532634659045
 40
0.8470804023057433
 40
0.90046243336208
 40
0.9554842890742989
 40
1.0
 40
1.0
 40
1.0
 40
1.0
 10
-64.8539958505679
 20
60.98368869414836
 30
0.0
 10
-64.84912787072102
 20
61.00166065410948
 30
0.0
 10
-64.83924769910597
 20
61.03813698602958
 30
0.0
 10
-64.76179864040368
 20
61.3309900895877
 30
0.0
 10
-64.64624482216453
 20
61.79248764051675
 30
0.0
 10
-64.5011214738899
 20
62.42173817700254
 30
0.0
 10
-64.33988411212884
 20
63.2121170832334
 30
0.0
 10
-64.18106060701703
 20
64.1390535574129
 30
0.0
 10
-64.04113086875962
 20
65.19246095943767
 30
0.0
 10
-63.94039961780423
 20
66.31831550887749
 30
0.0
 10
-63.88948260537241
 20
67.49668748668934
 30
0.0
 10
-63.89414994836908
 20
68.65884390241267
 30
0.0
 10
-63.95170399748196
 20
69.8001490147484
 30
0.0
 10
-64.05304380324168
 20
70.87337816535835
 30
0.0
 10
-64.18938701122828
 20
71.87984880311137
 30
0.0
 10
-64.34569055467215
 20
72.78564461021993
 30
0.0
 10
-64.50764673371481
 20
73.57605332602628
 30
0.0
 10
-64.65545460687464
 20
74.21328511851578
 30
0.0
 10
-64.77156536226344
 20
74.67421892385087
 30
0.0
 10
-64.84318372525534
 20
74.94371651103337
 30
0.0
 10
-64.84855751846342
 20
74.96351611770899
 30
0.0
 10
-64.85096081435567
 20
74.97237100131711
 30
0.0
  0
LINE
  5
A2
330
1F
100
AcDbEntity
  8
0
  6
Continuous
 62
     7
370
    25
100
AcDbLine
 10
-64.8539958506
 20
57.9836886941
 30
0.0
 11
-12.8539958506
 21
57.9836886941
 31
0.0
  0
LINE
  5
A3
330
1F
100
AcDbEntity
  8
0
  6
Continuous
 62
     7
370
    25
100
AcDbLine
 10
-79.8539958506
 20
74.9836886941
 30
0.0
 11
-79.8539958506
 21
60.9836886941
 31
0.0
  0
LINE
  5
A4
330
1F
100
AcDbEntity
  8
0
  6
Continuous
 62
     1
370
    25
100
AcDbLine
 10
-64.8539958506
 20
92.9836886941
 30
0.0
 11
-12.8539958506
 21
92.9836886941
 31
0.0
  0
INSERT
  5
B0
330
1F
100
AcDbEntity
  8
FORMAT
 62
     7
100
AcDbBlockReference
  2
SW_CENTERMARKSYMBOL_0
 10
-38.8539958506
 20
122.9836886941
 30
0.0
  0
LINE
  5
B1
330
1F
100
AcDbEntity
  8
0
  6
Continuous
 62
     7
370
    25
100
AcDbLine
 10
118.1389803397
 20
244.9749054467
 30
0.0
 11
118.1389803397
 21
260.9280626084
 31
0.0
  0
LINE
  5
B2
330
1F
100
AcDbEntity
  8
0
  6
Continuous
 62
     7
370
    25
100
AcDbLine
 10
104.1389803397
 20
260.9280626084
 30
0.0
 11
104.1389803397
 21
244.9733744333
 31
0.0
  0
LINE
  5
B3
330
1F
100
AcDbEntity
  8
0
  6
Continuous
 62
     7
370
    25
100
AcDbLine
 10
141.1389803397
 20
245.9280626084
 30
0.0
 11
118.1389803397
 21
245.9280626084
 31
0.0
  0
LINE
  5
B4
330
1F
100
AcDbEntity
  8
0
  6
Continuous
 62
     7
370
    25
100
AcDbLine
 10
111.1389803397
 20
193.9280626084
 30
0.0
 11
141.1389803397
 21
193.9280626084
 31
0.0
  0
LINE
  5
B5
330
1F
100
AcDbEntity
  8
0
  6
Continuous
 62
     7
370
    25
100
AcDbLine
 10
159.1389803397
 20
245.9280626084
 30
0.0
 11
141.1389803397
 21
245.9280626084
 31
0.0
  0
LINE
  5
B6
330
1F
100
AcDbEntity
  8
0
  6
Continuous
 62
     7
370
    25
100
AcDbLine
 10
176.1389803397
 20
245.9280626084
 30
0.0
 11
173.1276626468
 21
245.9280626084
 31
0.0
  0
LINE
  5
B7
330
1F
100
AcDbEntity
  8
0
  6
Continuous
 62
     7
370
    25
100
AcDbLine
 10
141.1389803397
 20
193.9280626084
 30
0.0
 11
176.1389803397
 21
193.9280626084
 31
0.0
  0
LINE
  5
B8
330
1F
100
AcDbEntity
  8
0
  6
Continuous
 62
     7
370
    25
100
AcDbLine
 10
173.1389803397
 20
245.9250372825
 30
0.0
 11
173.1389803397
 21
260.9280626084
 31
0.0
  0
LINE
  5
B9
330
1F
100
AcDbEntity
  8
0
  6
Continuous
 62
     7
370
    25
100
AcDbLine
 10
159.1389803397
 20
260.9280626084
 30
0.0
 11
159.1389803397
 21
245.9280626084
 31
0.0
  0
CIRCLE
  5
BA
330
1F
100
AcDbEntity
  8
0
  6
Continuous
 62
     7
370
    25
100
AcDbCircle
 10
111.1389803397
 20
219.9280626084
 30
0.0
 40
20.0
  0
CIRCLE
  5
BB
330
1F
100
AcDbEntity
  8
0
  6
Continuous
 62
     7
370
    25
100
AcDbCircle
 10
111.1389803397
 20
219.9280626084
 30
0.0
 40
26.0
  0
LINE
  5
BC
330
1F
100
AcDbEntity
  8
0
  6
Continuous
 62
     7
370
    25
100
AcDbLine
 10
118.1389803397
 20
260.9280626084
 30
0.0
 11
104.1389803397
 21
260.9280626084
 31
0.0
  0
SPLINE
  5
BD
330
1F
100
AcDbEntity
  8
0
  6
Continuous
 62
     7
370
    25
100
AcDbSpline
210
0.0
220
0.0
230
1.0
 70
     8
 71
     3
 72
    26
 73
    22
 74
     0
 42
0.00000001
 43
0.00000001
 40
0.0
 40
0.0
 40
0.0
 40
0.0
 40
0.0516333363898262
 40
0.1047962893514216
 40
0.1564208821522513
 40
0.2094845500307912
 40
0.2622070182084794
 40
0.3164045673347075
 40
0.369989684202055
 40
0.4251980407114848
 40
0.4775299627412478
 40
0.531469874862056
 40
0.5823674886978051
 40
0.6347117607297618
 40
0.68623134398285
 40
0.7391519265833429
 40
0.7923532634659041
 40
0.847080402305743
 40
0.9004624333620797
 40
0.9554842890742986
 40
1.0
 40
1.0
 40
1.0
 40
1.0
 10
159.1389803396696
 20
245.9280626084293
 30
0.0
 10
159.1569522996307
 20
245.9231946285825
 30
0.0
 10
159.1934286315508
 20
245.9133144569674
 30
0.0
 10
159.4862817351089
 20
245.8358653982651
 30
0.0
 10
159.947779286038
 20
245.720311580026
 30
0.0
 10
160.5770298225238
 20
245.5751882317513
 30
0.0
 10
161.3674087287547
 20
245.4139508699903
 30
0.0
 10
162.2943452029342
 20
245.2551273648785
 30
0.0
 10
163.3477526049589
 20
245.1151976266211
 30
0.0
 10
164.4736071543987
 20
245.0144663756656
 30
0.0
 10
165.6519791322106
 20
244.9635493632338
 30
0.0
 10
166.8141355479339
 20
244.9682167062305
 30
0.0
 10
167.9554406602697
 20
245.0257707553434
 30
0.0
 10
169.0286698108796
 20
245.1271105611031
 30
0.0
 10
170.0351404486327
 20
245.2634537690897
 30
0.0
 10
170.9409362557412
 20
245.4197573125336
 30
0.0
 10
171.7313449715476
 20
245.5817134915763
 30
0.0
 10
172.3685767640371
 20
245.7295213647361
 30
0.0
 10
172.8295105693722
 20
245.8456321201249
 30
0.0
 10
173.0990081565546
 20
245.9172504831168
 30
0.0
 10
173.1188077632303
 20
245.9226242763249
 30
0.0
 10
173.1276626468384
 20
245.9250275722171
 30
0.0
  0
LINE
  5
BE
330
1F
100
AcDbEntity
  8
0
  6
Continuous
 62
     7
370
    25
100
AcDbLine
 10
176.1389803397
 20
245.9280626084
 30
0.0
 11
176.1389803397
 21
193.9280626084
 31
0.0
  0
LINE
  5
BF
330
1F
100
AcDbEntity
  8
0
  6
Continuous
 62
     7
370
    25
100
AcDbLine
 10
173.1389803397
 20
260.9280626084
 30
0.0
 11
159.1389803397
 21
260.9280626084
 31
0.0
  0
LINE
  5
C0
330
1F
100
AcDbEntity
  8
0
  6
Continuous
 62
     1
370
    25
100
AcDbLine
 10
141.1389803397
 20
245.9280626084
 30
0.0
 11
141.1389803397
 21
193.9280626084
 31
0.0
  0
INSERT
  5
CC
330
1F
100
AcDbEntity
  8
FORMAT
 62
     7
100
AcDbBlockReference
  2
SW_CENTERMARKSYMBOL_1
 10
111.1389803397
 20
219.9280626084
 30
0.0
  0
LINE
  5
CD
330
1F
100
AcDbEntity
  8
0
  6
Continuous
 62
     7
370
    25
100
AcDbLine
 10
243.0546249908
 20
92.9836886941
 30
0.0
 11
243.0546249908
 21
57.9836886941
 31
0.0
  0
LINE
  5
CE
330
1F
100
AcDbEntity
  8
0
  6
Continuous
 62
     7
370
    25
100
AcDbLine
 10
295.0546249908
 20
74.9723710013
 30
0.0
 11
295.0546249908
 21
92.9836886941
 31
0.0
  0
LINE
  5
CF
330
1F
100
AcDbEntity
  8
0
  6
Continuous
 62
     7
370
    25
100
AcDbLine
 10
295.0546249908
 20
57.9836886941
 30
0.0
 11
295.0546249908
 21
60.9836886941
 31
0.0
  0
LINE
  5
D0
330
1F
100
AcDbEntity
  8
0
  6
Continuous
 62
     7
370
    25
100
AcDbLine
 10
295.0546249908
 20
92.9836886941
 30
0.0
 11
295.0546249908
 21
122.9836886941
 31
0.0
  0
LINE
  5
D1
330
1F
100
AcDbEntity
  8
0
  6
Continuous
 62
     7
370
    25
100
AcDbLine
 10
243.0546249908
 20
122.9836886941
 30
0.0
 11
243.0546249908
 21
92.9836886941
 31
0.0
  0
LINE
  5
D2
330
1F
100
AcDbEntity
  8
0
  6
Continuous
 62
     7
370
    25
100
AcDbLine
 10
295.0546249908
 20
60.9836886941
 30
0.0
 11
310.0546249908
 21
60.9836886941
 31
0.0
  0
LINE
  5
D3
330
1F
100
AcDbEntity
  8
0
  6
Continuous
 62
     7
370
    25
100
AcDbLine
 10
310.0546249908
 20
74.9836886941
 30
0.0
 11
295.0515996649
 21
74.9836886941
 31
0.0
  0
LINE
  5
D4
330
1F
100
AcDbEntity
  8
0
  6
Continuous
 62
     7
370
    25
100
AcDbLine
 10
295.0546249908
 20
115.9836886941
 30
0.0
 11
310.0546249908
 21
115.9836886941
 31
0.0
  0
LINE
  5
D5
330
1F
100
AcDbEntity
  8
0
  6
Continuous
 62
     7
370
    25
100
AcDbLine
 10
310.0546249908
 20
129.9836886941
 30
0.0
 11
294.0999368157
 21
129.9836886941
 31
0.0
  0
LINE
  5
D6
330
1F
100
AcDbEntity
  8
0
  6
Continuous
 62
     7
370
    25
100
AcDbLine
 10
243.0546249908
 20
57.9836886941
 30
0.0
 11
295.0546249908
 21
57.9836886941
 31
0.0
  0
SPLINE
  5
D7
330
1F
100
AcDbEntity
  8
0
  6
Continuous
 62
     7
370
    25
100
AcDbSpline
210
0.0
220
0.0
230
1.0
 70
     8
 71
     3
 72
    27
 73
    23
 74
     0
 42
0.00000001
 43
0.00000001
 40
0.0
 40
0.0
 40
0.0
 40
0.0
 40
0.0073045518332253
 40
0.060680249718918
 40
0.1116410447182789
 40
0.1640261496819295
 40
0.2160213579243238
 40
0.2694418687074502
 40
0.3228892994219834
 40
0.3779007948775926
 40
0.4309828043110736
 40
0.4857098993649895
 40
0.5370462990690033
 40
0.5898987227986302
 40
0.6408800816072918
 40
0.6932582501313591
 40
0.7457678917036186
 40
0.7997350271708333
 40
0.8533260414361713
 40
0.9085260539650438
 40
0.9537567735828308
 40
1.0
 40
1.0
 40
1.0
 40
1.0
 10
295.0515899545924
 20
74.97237100131713
 30
0.0
 10
295.0525646849727
 20
74.97600622295846
 30
0.0
 10
295.0606619487382
 20
75.00620467483014
 30
0.0
 10
295.0263790773068
 20
74.87910593017158
 30
0.0
 10
294.9487669273327
 20
74.58301663239213
 30
0.0
 10
294.8284895547427
 20
74.0987042260055
 30
0.0
 10
294.6807896391803
 20
73.4487396325103
 30
0.0
 10
294.5198844638565
 20
72.64499469827432
 30
0.0
 10
294.3615065096492
 20
71.69478224814277
 30
0.0
 10
294.2267934816269
 20
70.63736042108388
 30
0.0
 10
294.1309545036744
 20
69.49179821721266
 30
0.0
 10
294.087708371434
 20
68.3256417978766
 30
0.0
 10
294.0996381614403
 20
67.15199217110943
 30
0.0
 10
294.1627129382223
 20
66.02945235160828
 30
0.0
 10
294.2701300883196
 20
64.95553578408078
 30
0.0
 10
294.4090202473879
 20
63.96669624538402
 30
0.0
 10
294.567791439346
 20
63.06980128719461
 30
0.0
 10
294.7281007622747
 20
62.30210824967076
 30
0.0
 10
294.8738815321751
 20
61.68120148453005
 30
0.0
 10
294.9789232071493
 20
61.26809758070072
 30
0.0
 10
295.0430403417806
 20
61.02649875025294
 30
0.0
 10
295.0507350507322
 20
60.99806362707885
 30
0.0
 10
295.0546249908046
 20
60.98368869414836
 30
0.0
  0
ARC
  5
D8
330
1F
100
AcDbEntity
  8
0
  6
Continuous
 62
     7
370
    25
100
AcDbCircle
 10
269.0546249908
 20
122.9836886941
 30
0.0
 40
26.0
100
AcDbArc
 50
0.0
 51
180.0
  0
LINE
  5
D9
330
1F
100
AcDbEntity
  8
0
  6
Continuous
 62
     7
370
    25
100
AcDbLine
 10
310.0546249908
 20
67.9836886941
 30
0.0
 11
310.0546249908
 21
74.9836886941
 31
0.0
  0
LINE
  5
DA
330
1F
100
AcDbEntity
  8
0
  6
Continuous
 62
     7
370
    25
100
AcDbLine
 10
310.0546249908
 20
60.9836886941
 30
0.0
 11
310.0546249908
 21
67.9836886941
 31
0.0
  0
LINE
  5
DB
330
1F
100
AcDbEntity
  8
0
  6
Continuous
 62
     7
370
    25
100
AcDbLine
 10
310.0546249908
 20
122.9836886941
 30
0.0
 11
310.0546249908
 21
129.9836886941
 31
0.0
  0
LINE
  5
DC
330
1F
100
AcDbEntity
  8
0
  6
Continuous
 62
     7
370
    25
100
AcDbLine
 10
310.0546249908
 20
115.9836886941
 30
0.0
 11
310.0546249908
 21
122.9836886941
 31
0.0
  0
LINE
  5
DD
330
1F
100
AcDbEntity
  8
0
  6
Continuous
 62
     1
370
    25
100
AcDbLine
 10
243.0546249908
 20
92.9836886941
 30
0.0
 11
295.0546249908
 21
92.9836886941
 31
0.0
  0
INSERT
  5
E9
330
1F
100
AcDbEntity
  8
FORMAT
 62
     7
100
AcDbBlockReference
  2
SW_CENTERMARKSYMBOL_2
 10
269.0546249908
 20
122.9836886941
 30
0.0
  0
LINE
  5
EA
330
1F
100
AcDbEntity
  8
0
  6
Continuous
 62
     7
370
    25
100
AcDbLine
 10
111.1389803397
 20
-48.5751989342
 30
0.0
 11
141.1389803397
 21
-48.5751989342
 31
0.0
  0
LINE
  5
EB
330
1F
100
AcDbEntity
  8
0
  6
Continuous
 62
     7
370
    25
100
AcDbLine
 10
141.1389803397
 20
3.4248010658
 30
0.0
 11
111.1389803397
 21
3.4248010658
 31
0.0
  0
LINE
  5
EC
330
1F
100
AcDbEntity
  8
0
  6
Continuous
 62
     7
370
    25
100
AcDbLine
 10
176.1389803397
 20
3.4248010658
 30
0.0
 11
141.1389803397
 21
3.4248010658
 31
0.0
  0
LINE
  5
ED
330
1F
100
AcDbEntity
  8
0
  6
Continuous
 62
     7
370
    25
100
AcDbLine
 10
173.1276626468
 20
-48.5751989342
 30
0.0
 11
176.1389803397
 21
-48.5751989342
 31
0.0
  0
LINE
  5
EE
330
1F
100
AcDbEntity
  8
0
  6
Continuous
 62
     7
370
    25
100
AcDbLine
 10
141.1389803397
 20
-48.5751989342
 30
0.0
 11
159.1389803397
 21
-48.5751989342
 31
0.0
  0
LINE
  5
EF
330
1F
100
AcDbEntity
  8
0
  6
Continuous
 62
     7
370
    25
100
AcDbLine
 10
159.1389803397
 20
-48.5751989342
 30
0.0
 11
159.1389803397
 21
-63.5751989342
 31
0.0
  0
LINE
  5
F0
330
1F
100
AcDbEntity
  8
0
  6
Continuous
 62
     7
370
    25
100
AcDbLine
 10
173.1389803397
 20
-63.5751989342
 30
0.0
 11
173.1389803397
 21
-48.5721736082
 31
0.0
  0
LINE
  5
F1
330
1F
100
AcDbEntity
  8
0
  6
Continuous
 62
     7
370
    25
100
AcDbLine
 10
104.1389803397
 20
-47.620510759
 30
0.0
 11
104.1389803397
 21
-63.5751989342
 31
0.0
  0
LINE
  5
F2
330
1F
100
AcDbEntity
  8
0
  6
Continuous
 62
     7
370
    25
100
AcDbLine
 10
118.1389803397
 20
-63.5751989342
 30
0.0
 11
118.1389803397
 21
-48.5751989342
 31
0.0
  0
ARC
  5
F3
330
1F
100
AcDbEntity
  8
0
  6
Continuous
 62
     7
370
    25
100
AcDbCircle
 10
111.1389803397
 20
-22.5751989342
 30
0.0
 40
26.0
100
AcDbArc
 50
90.0
 51
270.0
  0
SPLINE
  5
F4
330
1F
100
AcDbEntity
  8
0
  6
Continuous
 62
     7
370
    25
100
AcDbSpline
210
0.0
220
0.0
230
1.0
 70
     8
 71
     3
 72
    27
 73
    23
 74
     0
 42
0.00000001
 43
0.00000001
 40
0.0
 40
0.0
 40
0.0
 40
0.0
 40
0.0073045518332249
 40
0.0606802497189171
 40
0.1116410447182783
 40
0.164026149681929
 40
0.2160213579243226
 40
0.2694418687074494
 40
0.3228892994219822
 40
0.3779007948775914
 40
0.4309828043110728
 40
0.4857098993649888
 40
0.5370462990690027
 40
0.5898987227986298
 40
0.6408800816072913
 40
0.6932582501313588
 40
0.7457678917036178
 40
0.7997350271708329
 40
0.8533260414361707
 40
0.9085260539650434
 40
0.9537567735828303
 40
1.0
 40
1.0
 40
1.0
 40
1.0
 10
173.1276626468384
 20
-48.57216389793973
 30
0.0
 10
173.1312978684797
 20
-48.57313862832
 30
0.0
 10
173.1614963203514
 20
-48.58123589208554
 30
0.0
 10
173.0343975756929
 20
-48.54695302065412
 30
0.0
 10
172.7383082779135
 20
-48.46934087068005
 30
0.0
 10
172.2539958715268
 20
-48.34906349809005
 30
0.0
 10
171.6040312780316
 20
-48.20136358252766
 30
0.0
 10
170.8002863437956
 20
-48.04045840720388
 30
0.0
 10
169.8500738936641
 20
-47.88208045299653
 30
0.0
 10
168.7926520666052
 20
-47.74736742497432
 30
0.0
 10
167.647089862734
 20
-47.65152844702171
 30
0.0
 10
166.4809334433979
 20
-47.60828231478137
 30
0.0
 10
165.3072838166307
 20
-47.62021210478765
 30
0.0
 10
164.1847439971296
 20
-47.68328688156967
 30
0.0
 10
163.1108274296021
 20
-47.79070403166691
 30
0.0
 10
162.1219878909053
 20
-47.92959419073524
 30
0.0
 10
161.2250929327159
 20
-48.08836538269338
 30
0.0
 10
160.457399895192
 20
-48.24867470562207
 30
0.0
 10
159.8364931300513
 20
-48.39445547552243
 30
0.0
 10
159.423389226222
 20
-48.49949715049658
 30
0.0
 10
159.1817903957742
 20
-48.56361428512793
 30
0.0
 10
159.1533552726001
 20
-48.57130899407954
 30
0.0
 10
159.1389803396696
 20
-48.57519893415195
 30
0.0
  0
LINE
  5
F5
330
1F
100
AcDbEntity
  8
0
  6
Continuous
 62
     7
370
    25
100
AcDbLine
 10
176.1389803397
 20
3.4248010658
 30
0.0
 11
176.1389803397
 21
-48.5751989342
 31
0.0
  0
LINE
  5
F6
330
1F
100
AcDbEntity
  8
0
  6
Continuous
 62
     7
370
    25
100
AcDbLine
 10
159.1389803397
 20
-63.5751989342
 30
0.0
 11
173.1389803397
 21
-63.5751989342
 31
0.0
  0
LINE
  5
F7
330
1F
100
AcDbEntity
  8
0
  6
Continuous
 62
     7
370
    25
100
AcDbLine
 10
104.1389803397
 20
-63.5751989342
 30
0.0
 11
118.1389803397
 21
-63.5751989342
 31
0.0
  0
LINE
  5
F8
330
1F
100
AcDbEntity
  8
0
  6
Continuous
 62
     1
370
    25
100
AcDbLine
 10
141.1389803397
 20
3.4248010658
 30
0.0
 11
141.1389803397
 21
-48.5751989342
 31
0.0
  0
INSERT
  5
104
330
1F
100
AcDbEntity
  8
FORMAT
 62
     7
100
AcDbBlockReference
  2
SW_CENTERMARKSYMBOL_3
 10
111.1389803397
 20
-22.5751989342
 30
0.0
  0
LINE
  5
105
330
1F
100
AcDbEntity
  8
0
  6
Continuous
 62
     7
370
    25
100
AcDbLine
 10
291.2942044899
 20
35.6430582299
 30
0.0
 11
278.2205359969
 21
28.095790057
 31
0.0
  0
LINE
  5
106
330
1F
100
AcDbEntity
  8
0
  6
Continuous
 62
     7
370
    25
100
AcDbLine
 10
292.5433541969
 20
-23.6786245708
 30
0.0
 11
317.2920915384
 21
-9.3914826139
 31
0.0
  0
LINE
  5
107
330
1F
100
AcDbEntity
  8
0
  6
Continuous
 62
     7
370
    25
100
AcDbLine
 10
232.331207237
 20
-51.3904247934
 30
0.0
 11
232.331207237
 21
-66.4826285988
 31
0.0
  0
LINE
  5
108
330
1F
100
AcDbEntity
  8
0
  6
Continuous
 62
     7
370
    25
100
AcDbLine
 10
284.331207237
 20
-66.4826285988
 30
0.0
 11
284.331207237
 21
-37.9037001828
 31
0.0
  0
LINE
  5
109
330
1F
100
AcDbEntity
  8
0
  6
Continuous
 62
     7
370
    25
100
AcDbLine
 10
282.6735443137
 20
25.5251230739
 30
0.0
 11
271.7304177379
 21
31.8424555779
 31
0.0
  0
LINE
  5
10A
330
1F
100
AcDbEntity
  8
0
  6
Continuous
 62
     7
370
    25
100
AcDbLine
 10
264.7309866094
 20
19.7177715046
 30
0.0
 11
275.6741609051
 21
13.4004114525
 31
0.0
  0
LINE
  5
10B
330
1F
100
AcDbEntity
  8
0
  6
Continuous
 62
     7
370
    25
100
AcDbLine
 10
243.782629514
 20
-41.8358205045
 30
0.0
 11
232.8395447726
 21
-35.5185121509
 31
0.0
  0
LINE
  5
10C
330
1F
100
AcDbEntity
  8
0
  6
Continuous
 62
     7
370
    25
100
AcDbLine
 10
225.8401136441
 20
-47.6431962243
 30
0.0
 11
236.7830501114
 21
-53.9604189809
 31
0.0
  0
SPLINE
  5
10D
330
1F
100
AcDbEntity
  8
0
  6
Continuous
 62
     7
370
    25
100
AcDbSpline
210
0.0
220
0.0
230
1.0
 70
     8
 71
     3
 72
    36
 73
    32
 74
     0
 42
0.00000001
 43
0.00000001
 40
0.0
 40
0.0
 40
0.0
 40
0.0
 40
0.0204103141389875
 40
0.0547077474388487
 40
0.0884144104685615
 40
0.121893032821997
 40
0.1553292297450447
 40
0.1888697387025937
 40
0.2225969198672319
 40
0.2566047853746551
 40
0.2909532084341006
 40
0.3256704892689568
 40
0.3607564638610989
 40
0.396186310036972
 40
0.4319148252022839
 40
0.4678809597453993
 40
0.5040124392380549
 40
0.5402303817068141
 40
0.5764370335365148
 40
0.6125441978595088
 40
0.6484832996652814
 40
0.6841996245530211
 40
0.7196572582881813
 40
0.7548440556400094
 40
0.7897764142884305
 40
0.824503545334136
 40
0.8591108790197937
 40
0.8937222647145244
 40
0.9284828380029956
 40
0.9635450563466557
 40
1.0
 40
1.0
 40
1.0
 40
1.0
 10
284.3312072370186
 20
-37.90370018281187
 30
0.0
 10
284.331345042648
 20
-37.8820204806258
 30
0.0
 10
284.3317144164613
 20
-37.82391026910882
 30
0.0
 10
284.3383296316144
 20
-37.66082282154469
 30
0.0
 10
284.3601553433384
 20
-37.39602118301133
 30
0.0
 10
284.4019541678168
 20
-37.05445832624256
 30
0.0
 10
284.4687778356719
 20
-36.64106075272485
 30
0.0
 10
284.5651104703149
 20
-36.16002685602211
 30
0.0
 10
284.6947184740496
 20
-35.6168395365232
 30
0.0
 10
284.8606130953042
 20
-35.01762044149101
 30
0.0
 10
285.0650486245066
 20
-34.36908662957404
 30
0.0
 10
285.3093866934324
 20
-33.67874241582357
 30
0.0
 10
285.5940120419266
 20
-32.95484338135832
 30
0.0
 10
285.9182681795506
 20
-32.20628930090069
 30
0.0
 10
286.2804196180621
 20
-31.44247452332991
 30
0.0
 10
286.6776443968989
 20
-30.67310290021952
 30
0.0
 10
287.1060572814831
 20
-29.90798154890676
 30
0.0
 10
287.5606920361286
 20
-29.1569202805635
 30
0.0
 10
288.0355944503198
 20
-28.42944634734166
 30
0.0
 10
288.5239894697969
 20
-27.73447840436211
 30
0.0
 10
289.0185209135373
 20
-27.0800019800846
 30
0.0
 10
289.5113980164923
 20
-26.47294229291886
 30
0.0
 10
289.9945183622427
 20
-25.9190857815439
 30
0.0
 10
290.4596475087125
 20
-25.42296099677048
 30
0.0
 10
290.8985734565454
 20
-24.98777341558501
 30
0.0
 10
291.3033113970585
 20
-24.61534316329753
 30
0.0
 10
291.6660099856174
 20
-24.3062614673077
 30
0.0
 10
291.9797278920244
 20
-24.05951040162956
 30
0.0
 10
292.23554389694
 20
-23.87440472893795
 30
0.0
 10
292.4351921633027
 20
-23.7425080455934
 30
0.0
 10
292.5068351272975
 20
-23.70019373868545
 30
0.0
 10
292.5433541968839
 20
-23.67862457079642
 30
0.0
  0
SPLINE
  5
10E
330
1F
100
AcDbEntity
  8
0
  6
Continuous
 62
     7
370
    25
100
AcDbSpline
210
0.0
220
0.0
230
1.0
 70
     8
 71
     3
 72
    38
 73
    34
 74
     0
 42
0.00000001
 43
0.00000001
 40
0.0
 40
0.0
 40
0.0
 40
0.0
 40
0.0148382854637811
 40
0.0484151651363892
 40
0.0821256201682608
 40
0.1159128871666448
 40
0.1497159106326569
 40
0.1834936646287868
 40
0.2172181986044925
 40
0.2508712879100779
 40
0.2844435609315595
 40
0.3179332443262192
 40
0.3513448021565363
 40
0.3846876391638785
 40
0.4179749571774099
 40
0.4512227939851401
 40
0.4844492361016916
 40
0.5176737756975222
 40
0.5509165552677603
 40
0.584191670086114
 40
0.6175199144504064
 40
0.6509216635665018
 40
0.6844163202273705
 40
0.7180216454338536
 40
0.7517529223752569
 40
0.7856219100110914
 40
0.8196355583128064
 40
0.8537944904440415
 40
0.8880913160038996
 40
0.92250892949012
 40
0.9570190648449202
 40
0.9915755108041272
 40
1.0
 40
1.0
 40
1.0
 40
1.0
 10
264.3815974851504
 20
20.02756599923889
 30
0.0
 10
264.1142888258441
 20
19.85918875877903
 30
0.0
 10
263.2420995884628
 20
19.30979833749534
 30
0.0
 10
261.8003156326894
 20
18.2998759045405
 30
0.0
 10
260.0550597671814
 20
17.00227957129207
 30
0.0
 10
258.3460161486664
 20
15.62886244647204
 30
0.0
 10
256.6745374694698
 20
14.1894721111943
 30
0.0
 10
255.0446859612987
 20
12.68700108562723
 30
0.0
 10
253.4588784260554
 20
11.12588106253052
 30
0.0
 10
251.9192537520775
 20
9.50976850442387
 30
0.0
 10
250.4275016150355
 20
7.842179879005321
 30
0.0
 10
248.985031546427
 20
6.126310760109697
 30
0.0
 10
247.5930378791209
 20
4.365092181018843
 30
0.0
 10
246.2525824346373
 20
2.561202389646234
 30
0.0
 10
244.9646573529012
 20
0.7170996164553612
 30
0.0
 10
243.730237237381
 20
-1.164948211154173
 30
0.0
 10
242.5503197467301
 20
-3.082834103871289
 30
0.0
 10
241.4259600354341
 20
-5.034580941600229
 30
0.0
 10
240.3583645322231
 20
-7.018188136121452
 30
0.0
 10
239.3488221133152
 20
-9.031733664309353
 30
0.0
 10
238.3987181939881
 20
-11.07335941393304
 30
0.0
 10
237.5094997896601
 20
-13.14138331199243
 30
0.0
 10
236.6827640117335
 20
-15.23413406690409
 30
0.0
 10
235.9202725585642
 20
-17.34990944179452
 30
0.0
 10
235.2239702796944
 20
-19.4869224490226
 30
0.0
 10
234.5959747959605
 20
-21.64323519276549
 30
0.0
 10
234.0386491945214
 20
-23.81666900678203
 30
0.0
 10
233.5543185655706
 20
-26.00472748816958
 30
0.0
 10
233.1462546392729
 20
-28.20440123241147
 30
0.0
 10
232.8148010553207
 20
-30.41237335657864
 30
0.0
 10
232.5716092897996
 20
-32.62360584857782
 30
0.0
 10
232.4327227375501
 20
-34.27806250724863
 30
0.0
 10
232.4032488172589
 20
-35.19198546721611
 30
0.0
 10
232.3974717739685
 20
-35.37111917089953
 30
0.0
  0
LWPOLYLINE
  5
10F
330
1F
100
AcDbEntity
  8
0
  6
Continuous
 62
     7
370
    25
100
AcDbPolyline
 90
      102
 70
   128
 43
0.0
 10
285.9083717033
 20
23.7390932617
 10
285.9439352673
 20
22.3986976514
 10
286.0504883707
 20
21.0224269544
 10
286.2276187804
 20
19.6156056945
 10
286.4746412132
 20
18.18367659
 10
286.7905999872
 20
16.7321794964
 10
287.1742727193
 20
15.266729974
 10
287.6241750543
 20
13.7929975622
 10
288.1385664075
 20
12.3166838455
 10
288.7154566986
 20
10.8435003948
 10
289.3526140512
 20
9.3791466708
 10
290.0475734272
 20
7.9292879735
 10
290.7976461638
 20
6.4995335246
 10
291.5999303754
 20
5.0954147662
 10
292.4513221801
 20
3.722363961
 10
293.3485277086
 20
2.385693176
 10
294.2880758467
 20
1.0905737306
 10
295.2663316655
 20
-0.1579838096
 10
296.2795104831
 20
-1.3551490179
 10
297.3236925075
 20
-2.4962902949
 10
298.3948380013
 20
-3.5769927865
 10
299.4888029108
 20
-4.5930754648
 10
300.6013548981
 20
-5.5406073033
 10
301.7281897157
 20
-6.4159224854
 10
302.8649478588
 20
-7.2156345867
 10
304.0072314308
 20
-7.9366496764
 10
305.1506211585
 20
-8.5761782872
 10
306.2906934892
 20
-9.1317462072
 10
307.4230377045
 20
-9.6012040519
 10
308.5432729846
 20
-9.9827355803
 10
309.6470653569
 20
-10.2748647209
 10
310.730144463
 20
-10.4764612829
 10
311.7883200804
 20
-10.5867453283
 10
312.8174983332
 20
-10.6052901895
 10
313.8136975306
 20
-10.5320241201
 10
314.7730635714
 20
-10.3672305724
 10
315.6918848548
 20
-10.1115471004
 10
316.5666066398
 20
-9.7659628939
 10
317.3938447977
 20
-9.3318149511
 10
318.1703989048
 20
-8.8107829059
 10
318.8932646241
 20
-8.2048825303
 10
319.5596453285
 20
-7.5164579349
 10
320.1669629206
 20
-6.7481725009
 10
320.7128678066
 20
-5.9029985753
 10
321.1952479865
 20
-4.9842059718
 10
321.6122372252
 20
-3.9953493206
 10
321.9622222722
 20
-2.940254316
 10
322.2438491035
 20
-1.8230029154
 10
322.4560281595
 20
-0.6479175476
 10
322.5979385606
 20
0.5804556104
 10
322.6690312831
 20
1.8573642216
 10
322.6690312831
 20
3.1778681746
 10
322.5979385606
 20
4.536858696
 10
322.4560281595
 20
5.9290781156
 10
322.2438491035
 20
7.349140207
 10
321.9622222722
 20
8.7915510257
 10
321.6122372252
 20
10.2507301645
 10
321.1952479865
 20
11.7210323428
 10
320.7128678066
 20
13.1967692471
 10
320.1669629206
 20
14.6722315381
 10
319.5596453285
 20
16.1417109386
 10
318.8932646241
 20
17.5995223184
 10
318.1703989048
 20
19.0400256886
 10
317.3938447977
 20
20.4576480213
 10
316.5666066398
 20
21.8469048111
 10
315.6918848548
 20
23.2024212936
 10
314.7730635714
 20
24.5189532386
 10
313.8136975306
 20
25.7914072399
 10
312.8174983332
 20
27.0148604201
 10
311.7883200804
 20
28.1845794766
 10
310.730144463
 20
29.2960389935
 10
309.6470653569
 20
30.34493895
 10
308.5432729846
 20
31.3272213558
 10
307.4230377045
 20
32.2390859511
 10
306.2906934892
 20
33.0770049091
 10
305.1506211585
 20
33.8377364839
 10
304.0072314308
 20
34.5183375529
 10
302.8649478588
 20
35.1161750029
 10
301.7281897157
 20
35.6289359168
 10
300.6013548981
 20
36.0546365223
 10
299.4888029108
 20
36.3916298664
 10
298.3948380013
 20
36.6386121874
 10
297.3236925075
 20
36.7946279587
 10
296.2795104831
 20
36.8590735855
 10
295.2663316655
 20
36.8316997402
 10
294.2880758467
 20
36.7126123269
 10
293.3485277086
 20
36.5022720718
 10
292.4513221801
 20
36.2014927402
 10
291.5999303754
 20
35.8114379892
 10
290.7976461638
 20
35.3336168647
 10
290.0475734272
 20
34.7698779638
 10
289.3526140512
 20
34.1224022828
 10
288.7154566986
 20
33.3936947794
 10
288.1385664075
 20
32.5865746813
 10
287.6241750543
 20
31.7041645794
 10
287.1742727193
 20
30.7498783469
 10
286.7905999872
 20
29.7274079319
 10
286.4746412132
 20
28.6407090738
 10
286.2276187804
 20
27.4939859994
 10
286.0504883707
 20
26.2916751574
 10
285.9439352673
 20
25.038428055
 10
285.9083717033
 20
23.7390932617
  0
LWPOLYLINE
  5
110
330
1F
100
AcDbEntity
  8
0
  6
Continuous
 62
     7
370
    25
100
AcDbPolyline
 90
       90
 70
   128
 43
0.0
 10
290.1510123904
 20
21.2898689262
 10
290.1862400946
 20
22.4214911832
 10
290.2917477044
 20
23.5068027136
 10
290.4670095862
 20
24.5403965499
 10
290.7111525943
 20
25.5171233796
 10
291.0229604203
 20
26.4321171987
 10
291.4008796534
 20
27.2808195542
 10
291.843027519
 20
28.0590022536
 10
292.3472012586
 20
28.7627884297
 10
292.910889104
 20
29.3886718553
 10
293.5312827908
 20
29.9335344107
 10
294.2052915489
 20
30.3946616179
 10
294.9295575003
 20
30.7697561645
 10
295.7004723888
 20
31.0569493482
 10
296.5141955549
 20
31.2548103871
 10
297.3666730709
 20
31.3623535474
 10
298.2536579367
 20
31.3790430545
 10
299.1707312383
 20
31.3047957622
 10
300.1133241625
 20
31.1399815666
 10
301.0767407589
 20
30.8854215639
 10
302.0561813345
 20
30.5423839592
 10
303.0467663656
 20
30.1125777485
 10
304.0435608073
 20
29.5981442048
 10
305.04159868
 20
29.0016462101
 10
306.0359078091
 20
28.3260554874
 10
307.0215345965
 20
27.5747377958
 10
307.9935686993
 20
26.7514361621
 10
308.9471674923
 20
25.8602522337
 10
309.8775801944
 20
24.9056258441
 10
310.7801715362
 20
23.892312894
 10
311.6504448532
 20
22.8253616574
 10
312.4840644874
 20
21.7100876318
 10
313.2768773878
 20
20.5520470564
 10
314.0249338003
 20
19.3570092308
 10
314.7245069456
 20
18.1309277736
 10
315.3721115854
 20
16.8799109609
 10
315.9645213859
 20
15.6101912954
 10
316.4987849914
 20
14.3280944568
 10
316.9722407274
 20
13.0400077869
 10
317.3825298614
 20
11.7523484687
 10
317.7276083533
 20
10.4715315563
 10
318.0057570397
 20
9.2039380149
 10
318.2155901976
 20
7.955882932
 10
318.3560624489
 20
6.7335840551
 10
318.4264739679
 20
5.5431308158
 10
318.4264739679
 20
4.3904539922
 10
318.3560624489
 20
3.2812961622
 10
318.2155901976
 20
2.2211830945
 10
318.0057570397
 20
1.2153962189
 10
317.7276083533
 20
0.2689463151
 10
317.3825298614
 20
-0.6134514511
 10
316.9722407274
 20
-1.4274010184
 10
316.4987849914
 20
-2.1688473311
 10
315.9645213859
 20
-2.8340965408
 10
315.3721115854
 20
-3.4198344095
 10
314.7245069456
 20
-3.9231428206
 10
314.0249338003
 20
-4.3415143169
 10
313.2768773878
 20
-4.6728645926
 10
312.4840644874
 20
-4.9155428773
 10
311.6504448532
 20
-5.0683401601
 10
310.7801715362
 20
-5.1304952126
 10
309.8775801944
 20
-5.1016983813
 10
308.9471674923
 20
-4.9820931308
 10
307.9935686993
 20
-4.7722753282
 10
307.0215345965
 20
-4.4732902754
 10
306.0359078091
 20
-4.0866275009
 10
305.04159868
 20
-3.6142133391
 10
304.0435608073
 20
-3.0584013336
 10
303.0467663656
 20
-2.4219605119
 10
302.0561813345
 20
-1.7080615902
 10
301.0767407589
 20
-0.9202611769
 10
300.1133241625
 20
-0.0624840542
 10
299.1707312383
 20
0.8609963756
 10
298.2536579367
 20
1.8455793794
 10
297.3666730709
 20
2.8863598142
 10
296.5141955549
 20
3.9781525642
 10
295.7004723888
 20
5.1155183728
 10
294.9295575003
 20
6.2927909408
 10
294.2052915489
 20
7.5041051555
 10
293.5312827908
 20
8.7434263104
 10
292.910889104
 20
10.0045801698
 10
292.3472012586
 20
11.2812837287
 10
291.843027519
 20
12.5671765141
 10
291.4008796534
 20
13.8558522729
 10
291.0229604203
 20
15.1408908873
 10
290.7111525943
 20
16.4158903594
 10
290.4670095862
 20
17.6744987062
 10
290.2917477044
 20
18.9104456041
 10
290.1862400946
 20
20.1175736278
 10
290.1510123904
 20
21.2898689262
  0
SPLINE
  5
111
330
1F
100
AcDbEntity
  8
0
  6
Continuous
 62
     7
370
    25
100
AcDbSpline
210
0.0
220
0.0
230
1.0
 70
     8
 71
     3
 72
    27
 73
    23
 74
     0
 42
0.00000001
 43
0.00000001
 40
0.0
 40
0.0
 40
0.0
 40
0.0
 40
0.0129116111506885
 40
0.0663707778673846
 40
0.1207715284822451
 40
0.1751622879790055
 40
0.2282981352129574
 40
0.281431300525586
 40
0.333047766920803
 40
0.3846716460635695
 40
0.4368886926878771
 40
0.4891113430156274
 40
0.5430775371183577
 40
0.597038897858883
 40
0.6512440141137806
 40
0.7054403891834066
 40
0.7580388027116326
 40
0.8106380585308705
 40
0.8623101729464271
 40
0.9139898422366467
 40
0.9666993000077793
 40
1.0
 40
1.0
 40
1.0
 40
1.0
 10
275.6837351165711
 20
13.41609099023977
 30
0.0
 10
275.737118670053
 20
13.3790941253133
 30
0.0
 10
276.0115312068438
 20
13.18891563595465
 30
0.0
 10
276.6073949027929
 20
13.01006820070644
 30
0.0
 10
277.4414922225527
 20
12.91304064543722
 30
0.0
 10
278.3148915206403
 20
13.02634991941447
 30
0.0
 10
279.1787735162962
 20
13.33922330401746
 30
0.0
 10
280.0013894505091
 20
13.830410854436
 30
0.0
 10
280.7625044135265
 20
14.48866209478603
 30
0.0
 10
281.453205715702
 20
15.28316603422464
 30
0.0
 10
282.0642329417794
 20
16.2019664634748
 30
0.0
 10
282.5969715940598
 20
17.22428105779341
 30
0.0
 10
283.0380642989874
 20
18.32165893355506
 30
0.0
 10
283.385411896561
 20
19.46180390850486
 30
0.0
 10
283.6286206010028
 20
20.59697872106041
 30
0.0
 10
283.7678370276693
 20
21.68098914666793
 30
0.0
 10
283.8020077833659
 20
22.67541935971435
 30
0.0
 10
283.7377995762504
 20
23.55225330323954
 30
0.0
 10
283.576220382478
 20
24.29635278184871
 30
0.0
 10
283.3166816754889
 20
24.89523740596558
 30
0.0
 10
283.0151989287243
 20
25.3070528207813
 30
0.0
 10
282.7606781978072
 20
25.45042295085079
 30
0.0
 10
282.6621349707923
 20
25.50593180949544
 30
0.0
  0
LWPOLYLINE
  5
112
330
1F
100
AcDbEntity
  8
0
  6
Continuous
 62
     7
370
    25
100
AcDbPolyline
 90
      102
 70
   128
 43
0.0
 10
239.9464309262
 20
-55.8693231451
 10
241.1249693677
 20
-55.2300282016
 10
242.3700754009
 20
-54.634267383
 10
243.6769319524
 20
-54.0843455722
 10
245.0404830482
 20
-53.5823903099
 10
246.4554533739
 20
-53.1303435634
 10
247.9163686843
 20
-52.7299542138
 10
249.4175769817
 20
-52.3827712897
 10
250.953270383
 20
-52.0901379744
 10
252.5175075887
 20
-51.8531864093
 10
254.1042368689
 20
-51.672833314
 10
255.7073194763
 20
-51.5497764397
 10
257.3205533957
 20
-51.4844918693
 10
258.9376973385
 20
-51.4772321764
 10
260.5524948889
 20
-51.5280254471
 10
262.1586987089
 20
-51.6366751723
 10
263.750094708
 20
-51.8027610071
 10
265.3205260841
 20
-52.0256403979
 10
266.8639171434
 20
-52.3044510675
 10
268.3742968057
 20
-52.6381143516
 10
269.8458217055
 20
-53.0253393718
 10
271.2727987989
 20
-53.4646280297
 10
272.6497073886
 20
-53.9542808028
 10
273.9712204829
 20
-54.4924033198
 10
275.2322254042
 20
-55.076913689
 10
276.4278435696
 20
-55.7055505534
 10
277.5534493646
 20
-56.3758818392
 10
278.604688039
 20
-57.0853141647
 10
279.5774925547
 20
-57.8311028743
 10
280.4680993199
 20
-58.6103626561
 10
281.2730627502
 20
-59.4200787056
 10
281.9892685983
 20
-60.2571183885
 10
282.613946003
 20
-61.1182433611
 10
283.1446782088
 20
-62.000122098
 10
283.5794119158
 20
-62.8993427818
 10
283.9164652238
 20
-63.8124265023
 10
284.154534139
 20
-64.7358407159
 10
284.2926976191
 20
-65.6660129126
 10
284.3304211363
 20
-66.5993444367
 10
284.2675587458
 20
-67.5322244098
 10
284.1043536499
 20
-68.4610437007
 10
283.8414372573
 20
-69.3822088879
 10
283.4798267406
 20
-70.2921561623
 10
283.0209211006
 20
-71.1873651146
 10
282.4664957541
 20
-72.0643723553
 10
281.818695665
 20
-72.9197849137
 10
281.080027046
 20
-73.7502933649
 10
280.2533476626
 20
-74.5526846329
 10
279.3418557765
 20
-75.323854422
 10
278.349077773
 20
-76.0608192258
 10
277.2788545171
 20
-76.7607278709
 10
276.1353264949
 20
-77.4208725466
 10
274.922917794
 20
-78.0386992813
 10
273.6463189881
 20
-78.6118178236
 10
272.3104689902
 20
-79.1380108891
 10
270.9205359442
 20
-79.615242739
 10
269.4818972311
 20
-80.041667056
 10
268.0001186647
 20
-80.4156340874
 10
266.4809329583
 20
-80.7356970272
 10
264.9302175463
 20
-81.0006176142
 10
263.3539718454
 20
-81.209370922
 10
261.758294044
 20
-81.3611493247
 10
260.1493575095
 20
-81.4553656212
 10
258.5333869048
 20
-81.4916553068
 10
256.9166341063
 20
-81.4698779838
 10
255.3053540163
 20
-81.3901179045
 10
253.7057803647
 20
-81.2526836451
 10
252.1241015911
 20
-81.0581069121
 10
250.5664369034
 20
-80.807140485
 10
249.0388126036
 20
-80.5007553042
 10
247.5471387735
 20
-80.1401367145
 10
246.0971864093
 20
-79.726679879
 10
244.694565095
 20
-79.261984382
 10
243.3447013
 20
-78.7478480402
 10
242.0528173851
 20
-78.186259947
 10
240.8239113981
 20
-77.5793927778
 10
239.6627377377
 20
-76.9295943837
 10
238.5737887591
 20
-76.2393787085
 10
237.5612773943
 20
-75.5114160625
 10
236.6291208532
 20
-74.7485227918
 10
235.7809254684
 20
-73.9536503823
 10
235.0199727429
 20
-73.1298740409
 10
234.349206655
 20
-72.2803807982
 10
233.7712222685
 20
-71.4084571786
 10
233.2882556926
 20
-70.5174764851
 10
232.9021754313
 20
-69.610885749
 10
232.6144751539
 20
-68.6921923936
 10
232.4262679171
 20
-67.7649506653
 10
232.338281858
 20
-66.8327478819
 10
232.3508573777
 20
-65.8991905551
 10
232.4639458238
 20
-64.9678904367
 10
232.6771096792
 20
-64.042450546
 10
232.9895242542
 20
-63.1264512301
 10
233.3999808777
 20
-62.2234363125
 10
233.9068915727
 20
-61.3368993824
 10
234.5082952001
 20
-60.470270279
 10
235.2018650461
 20
-59.6269018219
 10
235.9849178238
 20
-58.8100568399
 10
236.8544240542
 20
-58.0228955475
 10
237.8070197864
 20
-57.2684633188
 10
238.8390196127
 20
-56.5496789056
 10
239.9464309262
 20
-55.8693231451
  0
LWPOLYLINE
  5
113
330
1F
100
AcDbEntity
  8
0
  6
Continuous
 62
     7
370
    25
100
AcDbPolyline
 90
       90
 70
   128
 43
0.0
 10
244.1890716133
 20
-58.3185474806
 10
243.2267277919
 20
-58.9147697849
 10
242.3396337273
 20
-59.5486947812
 10
241.5322088776
 20
-60.217164287
 10
240.8084757927
 20
-60.9168480208
 10
240.1720400744
 20
-61.6442601935
 10
239.6260724135
 20
-62.3957768742
 10
239.1732927933
 20
-63.1676540446
 10
238.8159569393
 20
-63.9560462515
 10
238.5558450806
 20
-64.7570257646
 10
238.3942530814
 20
-65.5666021442
 10
238.331985985
 20
-66.3807421215
 10
238.3693540029
 20
-67.1953896921
 10
238.5061709694
 20
-68.0064863228
 10
238.7417552694
 20
-68.809991171
 10
239.0749332338
 20
-69.6019012159
 10
239.5040449866
 20
-70.3782712015
 10
240.0269527147
 20
-71.1352332916
 10
240.6410513181
 20
-71.8690163392
 10
241.3432813884
 20
-72.5759646741
 10
242.1301444508
 20
-73.252556315
 10
242.9977203931
 20
-73.8954205167
 10
243.9416869955
 20
-74.5013545619
 10
244.9573414639
 20
-75.0673397177
 10
246.039623859
 20
-75.5905562745
 10
247.1831423041
 20
-76.0683975938
 10
248.3821998479
 20
-76.4984830941
 10
249.6308228461
 20
-76.8786701112
 10
250.9227907217
 20
-77.2070645723
 10
252.2516669557
 20
-77.4820304329
 10
253.6108311536
 20
-77.7021978269
 10
254.9935120277
 20
-77.8664698913
 10
256.3928211315
 20
-77.974028231
 10
257.8017871773
 20
-78.0243369958
 10
259.2133907672
 20
-78.01714555
 10
260.6205993632
 20
-77.9524897208
 10
262.0164023227
 20
-77.8306916206
 10
263.3938458257
 20
-77.6523580411
 10
264.7460675179
 20
-77.4183774315
 10
266.0663306988
 20
-77.1299154712
 10
267.3480578838
 20
-76.7884092634
 10
268.5848635724
 20
-76.3955601746
 10
269.7705860609
 20
-75.9533253594
 10
270.8993181395
 20
-75.4639080093
 10
271.9654365219
 20
-74.9297463769
 10
272.9636298597
 20
-74.3535016287
 10
273.8889252041
 20
-73.738044587
 10
274.7367127801
 20
-73.0864414277
 10
275.5027689527
 20
-72.4019384052
 10
276.1832772686
 20
-71.6879456789
 10
276.7748474696
 20
-70.9480203248
 10
277.2745323828
 20
-70.1858486137
 10
277.6798426029
 20
-69.4052276468
 10
277.9887588949
 20
-68.6100464384
 10
278.1997422533
 20
-67.8042665414
 10
278.3117415697
 20
-66.9919023106
 10
278.3241988691
 20
-66.1770009038
 10
278.2370520899
 20
-65.3636221188
 10
278.0507353929
 20
-64.5558181678
 10
277.7661769985
 20
-63.7576134895
 10
277.3847945625
 20
-62.9729846993
 10
276.9084881127
 20
-62.2058407785
 10
276.3396305842
 20
-61.4600035995
 10
275.6810559963
 20
-60.7391888856
 10
274.9360453347
 20
-60.0469876995
 10
274.1083102049
 20
-59.3868485526
 10
273.2019743418
 20
-58.7620602249
 10
272.2215530649
 20
-58.1757353806
 10
271.1719307839
 20
-57.6307950604
 10
270.058336664
 20
-57.1299541296
 10
268.8863185752
 20
-56.6757077526
 10
267.6617154527
 20
-56.2703189619
 10
266.3906282076
 20
-55.9158073842
 10
265.0793893326
 20
-55.6139391782
 10
263.7345313539
 20
-55.3662182362
 10
262.3627542862
 20
-55.1738786914
 10
260.9708922538
 20
-55.0378787699
 10
259.5658794436
 20
-54.9588960163
 10
258.1547155585
 20
-54.9373239187
 10
256.744430946
 20
-54.9732699484
 10
255.3420515732
 20
-55.0665550239
 10
253.9545640236
 20
-55.2167144037
 10
252.5888806903
 20
-55.4230000013
 10
251.2518053391
 20
-55.6843841123
 10
249.9499992119
 20
-55.9995645341
 10
248.6899478416
 20
-56.3669710538
 10
247.4779287406
 20
-56.7847732706
 10
246.3199801272
 20
-57.2508897148
 10
245.221870843
 20
-57.7629982177
 10
244.1890716133
 20
-58.3185474806
  0
LINE
  5
114
330
1F
100
AcDbEntity
  8
0
  6
Continuous
 62
     7
370
    25
100
AcDbLine
 10
284.331207237
 20
-37.9037001828
 30
0.0
 11
284.3311578822
 21
-37.9329456587
 31
0.0
  0
SPLINE
  5
115
330
1F
100
AcDbEntity
  8
0
  6
Continuous
 62
     7
370
    25
100
AcDbSpline
210
0.0
220
0.0
230
1.0
 70
     8
 71
     3
 72
    22
 73
    18
 74
     0
 42
0.00000001
 43
0.00000001
 40
0.0
 40
0.0
 40
0.0
 40
0.0
 40
0.0698556082791057
 40
0.1397178759989531
 40
0.209500696836735
 40
0.2792933792120561
 40
0.3505698283046321
 40
0.4218448140216727
 40
0.4943751761879714
 40
0.5668922175929555
 40
0.6377361342730105
 40
0.708576475253784
 40
0.7773946617507733
 40
0.8462227313699308
 40
0.9158416476552683
 40
0.9854680351360503
 40
1.0
 40
1.0
 40
1.0
 40
1.0
 10
239.9464309261684
 20
-53.41970070946067
 30
0.0
 10
240.2229014828917
 20
-53.24892163666546
 30
0.0
 10
240.7758689526943
 20
-52.90734721044785
 30
0.0
 10
241.6253065658953
 20
-52.24029776007015
 30
0.0
 10
242.4547683653893
 20
-51.47871835057482
 30
0.0
 10
243.2454352994607
 20
-50.62526379870383
 30
0.0
 10
243.9656503288106
 20
-49.69620363880554
 30
0.0
 10
244.5926455247104
 20
-48.70426592891121
 30
0.0
 10
245.0876126579347
 20
-47.67374425352614
 30
0.0
 10
245.4277614029817
 20
-46.6369257510935
 30
0.0
 10
245.5882378556308
 20
-45.62647171158635
 30
0.0
 10
245.5743552723243
 20
-44.6780671638485
 30
0.0
 10
245.3843396771537
 20
-43.81376307738763
 30
0.0
 10
245.0432598086355
 20
-43.04562562814922
 30
0.0
 10
244.5468056655008
 20
-42.4119895422153
 30
0.0
 10
244.1132859758322
 20
-42.00569872723793
 30
0.0
 10
243.8247700960006
 20
-41.87298783400842
 30
0.0
 10
243.7749508860043
 20
-41.8500721045087
 30
0.0
  0
SPLINE
  5
116
330
1F
100
AcDbEntity
  8
0
  6
Continuous
 62
     7
370
    25
100
AcDbSpline
210
0.0
220
0.0
230
1.0
 70
     8
 71
     3
 72
    12
 73
     8
 74
     0
 42
0.00000001
 43
0.00000001
 40
0.0
 40
0.0
 40
0.0
 40
0.0
 40
0.1988607226105437
 40
0.4164804307457053
 40
0.6340640585694015
 40
0.8170372450747956
 40
0.9999999999999999
 40
0.9999999999999999
 40
0.9999999999999999
 40
0.9999999999999999
 10
236.7860918426998
 20
-53.95460637053124
 30
0.0
 10
236.9391298181305
 20
-54.02726851718948
 30
0.0
 10
237.2596421902627
 20
-54.17944719652778
 30
0.0
 10
237.8702065048576
 20
-54.1956909164303
 30
0.0
 10
238.5420292454031
 20
-54.06221921309704
 30
0.0
 10
239.2405228061871
 20
-53.80165567798199
 30
0.0
 10
239.7111326913332
 20
-53.54701661267195
 30
0.0
 10
239.9464309261684
 20
-53.41970070946067
 30
0.0
  0
LWPOLYLINE
  5
117
330
1F
100
AcDbEntity
  8
0
  6
Continuous
 62
     7
370
    25
100
AcDbPolyline
 90
       53
 70
   128
 43
0.0
 10
263.2809547053
 20
22.9226851499
 10
263.3170439373
 20
23.6324808513
 10
263.424785371
 20
24.3735938735
 10
263.6026078936
 20
25.1352171196
 10
263.8479184524
 20
25.9062444077
 10
264.157139867
 20
26.6754324237
 10
264.5257629929
 20
27.4315646744
 10
264.9484124748
 20
28.1636150487
 10
265.4189251317
 20
28.860908604
 10
265.9304398293
 20
29.5132772299
 10
266.4754975317
 20
30.1112079228
 10
267.0461500702
 20
30.6459815069
 10
267.6340760457
 20
31.109799779
 10
268.2307021736
 20
31.4958992245
 10
268.8273283016
 20
31.7986496438
 10
269.4152542771
 20
32.0136362542
 10
269.9859068155
 20
32.1377240667
 10
270.5309645179
 20
32.1691036017
 10
271.0424792156
 20
32.1073172749
 10
271.5129918724
 20
31.95326607
 10
271.9356413544
 20
31.7091964005
 10
272.3042644803
 20
31.3786673518
 10
272.6134858949
 20
30.9664987817
 10
272.8587964537
 20
30.4787010361
 10
273.0366189763
 20
29.9223873044
 10
273.14436041
 20
29.3056698938
 10
273.1804496419
 20
28.6375419326
 10
273.14436041
 20
27.9277462312
 10
273.0366189763
 20
27.186633209
 10
272.8587964537
 20
26.425009963
 10
272.6134858949
 20
25.6539826749
 10
272.3042644803
 20
24.8847946588
 10
271.9356413544
 20
24.1286624081
 10
271.5129918724
 20
23.3966120338
 10
271.0424792156
 20
22.6993184785
 10
270.5309645179
 20
22.0469498526
 10
269.9859068155
 20
21.4490191597
 10
269.4152542771
 20
20.9142455756
 10
268.8273283016
 20
20.4504273035
 10
268.2307021736
 20
20.0643278581
 10
267.6340760457
 20
19.7615774387
 10
267.0461500702
 20
19.5465908283
 10
266.4754975317
 20
19.4225030158
 10
265.9304398293
 20
19.3911234808
 10
265.4189251317
 20
19.4529098076
 10
264.9484124748
 20
19.6069610125
 10
264.5257629929
 20
19.851030682
 10
264.157139867
 20
20.1815597307
 10
263.8479184524
 20
20.5937283008
 10
263.6026078936
 20
21.0815260464
 10
263.424785371
 20
21.6378397781
 10
263.3170439373
 20
22.2545571887
 10
263.2809547053
 20
22.9226851499
  0
LWPOLYLINE
  5
118
330
1F
100
AcDbEntity
  8
0
  6
Continuous
 62
     7
370
    25
100
AcDbPolyline
 90
       45
 70
   128
 43
0.0
 10
264.6951682677
 20
23.7390932617
 10
264.731154905
 20
24.3408972732
 10
264.8383822329
 20
24.9719995775
 10
265.0146674121
 20
25.6195527517
 10
265.2564217848
 20
26.2703744806
 10
265.5587239291
 20
26.9112159106
 10
265.9154198451
 20
27.5290313581
 10
266.3192482326
 20
28.1112438824
 10
266.7619883101
 20
28.6460013153
 10
267.2346271665
 20
29.1224175377
 10
267.7275432376
 20
29.5307940891
 10
268.2307021736
 20
29.8628176007
 10
268.7338611097
 20
30.1117290311
 10
269.2267771807
 20
30.2724612615
 10
269.6994160371
 20
30.3417422472
 10
270.1421561147
 20
30.3181616271
 10
270.5459845022
 20
30.2021994346
 10
270.9026804182
 20
29.9962163256
 10
271.2049825624
 20
29.7044055221
 10
271.4467369351
 20
29.3327074506
 10
271.6230221143
 20
28.888688812
 10
271.7302494422
 20
28.3813885452
 10
271.7662360796
 20
27.8211338208
 10
271.7302494422
 20
27.2193298093
 10
271.6230221143
 20
26.588227505
 10
271.4467369351
 20
25.9406743308
 10
271.2049825624
 20
25.2898526019
 10
270.9026804182
 20
24.6490111719
 10
270.5459845022
 20
24.0311957244
 10
270.1421561147
 20
23.4489832001
 10
269.6994160371
 20
22.9142257672
 10
269.2267771807
 20
22.4378095448
 10
268.7338611097
 20
22.0294329934
 10
268.2307021736
 20
21.6974094818
 10
267.7275432376
 20
21.4484980514
 10
267.2346271665
 20
21.287765821
 10
266.7619883101
 20
21.2184848353
 10
266.3192482326
 20
21.2420654554
 10
265.9154198451
 20
21.3580276479
 10
265.5587239291
 20
21.5640107569
 10
265.2564217848
 20
21.8558215604
 10
265.0146674121
 20
22.2275196319
 10
264.8383822329
 20
22.6715382705
 10
264.731154905
 20
23.1788385373
 10
264.6951682677
 20
23.7390932617
  0
LWPOLYLINE
  5
119
330
1F
100
AcDbEntity
  8
0
  6
Continuous
 62
     7
370
    25
100
AcDbPolyline
 90
       53
 70
   128
 43
0.0
 10
224.3900817401
 20
-44.438282579
 10
224.426170972
 20
-43.7284868775
 10
224.5339124057
 20
-42.9873738554
 10
224.7117349283
 20
-42.2257506093
 10
224.9570454871
 20
-41.4547233212
 10
225.2662669017
 20
-40.6855353051
 10
225.6348900276
 20
-39.9294030545
 10
226.0575395096
 20
-39.1973526801
 10
226.5280521664
 20
-38.5000591249
 10
227.0395668641
 20
-37.847690499
 10
227.5846245665
 20
-37.249759806
 10
228.1552771049
 20
-36.714986222
 10
228.7432030804
 20
-36.2511679498
 10
229.3398292084
 20
-35.8650685044
 10
229.9364553363
 20
-35.5623180851
 10
230.5243813118
 20
-35.3473314747
 10
231.0950338503
 20
-35.2232436621
 10
231.6400915527
 20
-35.1918641271
 10
232.1516062503
 20
-35.253650454
 10
232.6221189072
 20
-35.4077016588
 10
233.0447683891
 20
-35.6517713283
 10
233.413391515
 20
-35.982300377
 10
233.7226129296
 20
-36.3944689472
 10
233.9679234884
 20
-36.8822666928
 10
234.145746011
 20
-37.4385804244
 10
234.2534874447
 20
-38.0552978351
 10
234.2895766767
 20
-38.7234257962
 10
234.2534874447
 20
-39.4332214977
 10
234.145746011
 20
-40.1743345198
 10
233.9679234884
 20
-40.9359577659
 10
233.7226129296
 20
-41.706985054
 10
233.413391515
 20
-42.47617307
 10
233.0447683891
 20
-43.2323053207
 10
232.6221189072
 20
-43.9643556951
 10
232.1516062503
 20
-44.6616492503
 10
231.6400915527
 20
-45.3140178762
 10
231.0950338503
 20
-45.9119485691
 10
230.5243813118
 20
-46.4467221532
 10
229.9364553363
 20
-46.9105404254
 10
229.3398292084
 20
-47.2966398708
 10
228.7432030804
 20
-47.5993902901
 10
228.1552771049
 20
-47.8143769005
 10
227.5846245665
 20
-47.938464713
 10
227.0395668641
 20
-47.9698442481
 10
226.5280521664
 20
-47.9080579212
 10
226.0575395096
 20
-47.7540067163
 10
225.6348900276
 20
-47.5099370468
 10
225.2662669017
 20
-47.1794079981
 10
224.9570454871
 20
-46.767239428
 10
224.7117349283
 20
-46.2794416824
 10
224.5339124057
 20
-45.7231279508
 10
224.426170972
 20
-45.1064105401
 10
224.3900817401
 20
-44.438282579
  0
LWPOLYLINE
  5
11A
330
1F
100
AcDbEntity
  8
0
  6
Continuous
 62
     7
370
    25
100
AcDbPolyline
 90
       45
 70
   128
 43
0.0
 10
225.8042953024
 20
-43.6218744671
 10
225.8402819398
 20
-43.0200704557
 10
225.9475092677
 20
-42.3889681513
 10
226.1237944469
 20
-41.7414149771
 10
226.3655488196
 20
-41.0905932482
 10
226.6678509638
 20
-40.4497518183
 10
227.0245468798
 20
-39.8319363707
 10
227.4283752673
 20
-39.2497238465
 10
227.8711153449
 20
-38.7149664135
 10
228.3437542013
 20
-38.2385501911
 10
228.8366702723
 20
-37.8301736397
 10
229.3398292084
 20
-37.4981501282
 10
229.8429881444
 20
-37.2492386977
 10
230.3359042155
 20
-37.0885064673
 10
230.8085430719
 20
-37.0192254816
 10
231.2512831494
 20
-37.0428061017
 10
231.6551115369
 20
-37.1587682942
 10
232.0118074529
 20
-37.3647514032
 10
232.3141095972
 20
-37.6565622067
 10
232.5558639699
 20
-38.0282602782
 10
232.7321491491
 20
-38.4722789169
 10
232.839376477
 20
-38.9795791836
 10
232.8753631143
 20
-39.539833908
 10
232.839376477
 20
-40.1416379195
 10
232.7321491491
 20
-40.7727402238
 10
232.5558639699
 20
-41.4202933981
 10
232.3141095972
 20
-42.071115127
 10
232.0118074529
 20
-42.7119565569
 10
231.6551115369
 20
-43.3297720045
 10
231.2512831494
 20
-43.9119845287
 10
230.8085430719
 20
-44.4467419616
 10
230.3359042155
 20
-44.923158184
 10
229.8429881444
 20
-45.3315347355
 10
229.3398292084
 20
-45.663558247
 10
228.8366702723
 20
-45.9124696775
 10
228.3437542013
 20
-46.0732019079
 10
227.8711153449
 20
-46.1424828936
 10
227.4283752673
 20
-46.1189022735
 10
227.0245468798
 20
-46.002940081
 10
226.6678509638
 20
-45.796956972
 10
226.3655488196
 20
-45.5051461685
 10
226.1237944469
 20
-45.133448097
 10
225.9475092677
 20
-44.6894294583
 10
225.8402819398
 20
-44.1821291915
 10
225.8042953024
 20
-43.6218744671
  0
LWPOLYLINE
  5
11B
330
1F
100
AcDbEntity
  8
0
  6
Continuous
 62
     1
370
    25
100
AcDbPolyline
 90
       39
 70
   128
 43
0.0
 10
261.1596343618
 20
9.4519513048
 10
261.1951979258
 20
8.1115556945
 10
261.3017510292
 20
6.7352849975
 10
261.4788814389
 20
5.3284637376
 10
261.7259038716
 20
3.8965346331
 10
262.0418626456
 20
2.4450375395
 10
262.4255353778
 20
0.9795880171
 10
262.8754377128
 20
-0.4941443947
 10
263.389829066
 20
-1.9704581114
 10
263.9667193571
 20
-3.4436415621
 10
264.6038767096
 20
-4.9079952861
 10
265.2988360857
 20
-6.3578539834
 10
266.0489088223
 20
-7.7876084323
 10
266.8511930339
 20
-9.1917271907
 10
267.7025848386
 20
-10.5647779959
 10
268.599790367
 20
-11.9014487809
 10
269.5393385052
 20
-13.1965682263
 10
270.517594324
 20
-14.4451257665
 10
271.5307731416
 20
-15.6422909748
 10
272.574955166
 20
-16.7834322518
 10
273.6461006598
 20
-17.8641347434
 10
274.7400655692
 20
-18.8802174217
 10
275.8526175565
 20
-19.8277492602
 10
276.9794523742
 20
-20.7030644423
 10
278.1162105172
 20
-21.5027765436
 10
279.2584940892
 20
-22.2237916333
 10
280.4018838169
 20
-22.8633202441
 10
281.5419561476
 20
-23.4188881641
 10
282.6743003629
 20
-23.8883460088
 10
283.7945356431
 20
-24.2698775372
 10
284.8983280153
 20
-24.5620066778
 10
285.9814071215
 20
-24.7636032398
 10
287.0395827389
 20
-24.8738872852
 10
288.0687609917
 20
-24.8924321464
 10
289.064960189
 20
-24.819166077
 10
290.0243262298
 20
-24.6543725293
 10
290.9431475133
 20
-24.3986890573
 10
291.8178692983
 20
-24.0531048508
 10
292.5433541969
 20
-23.6786245708
  0
ARC
  5
11C
330
1F
100
AcDbEntity
  8
0
  6
Continuous
 62
     1
370
    25
100
AcDbCircle
 10
275.9060984277
 20
10.3264950562
 30
0.0
 40
14.77237385188949
100
AcDbArc
 50
140.0511391612
 51
183.3939691903
  0
LWPOLYLINE
  5
11D
330
1F
100
AcDbEntity
  8
0
  6
Continuous
 62
     1
370
    25
100
AcDbPolyline
 90
       39
 70
   128
 43
0.0
 10
239.9464309262
 20
-27.2903947291
 10
241.1249693677
 20
-26.6510997856
 10
242.3700754009
 20
-26.055338967
 10
243.6769319524
 20
-25.5054171562
 10
245.0404830482
 20
-25.0034618939
 10
246.4554533739
 20
-24.5514151474
 10
247.9163686843
 20
-24.1510257978
 10
249.4175769817
 20
-23.8038428737
 10
250.953270383
 20
-23.5112095584
 10
252.5175075887
 20
-23.2742579933
 10
254.1042368689
 20
-23.093904898
 10
255.7073194763
 20
-22.9708480237
 10
257.3205533957
 20
-22.9055634533
 10
258.9376973385
 20
-22.8983037604
 10
260.5524948889
 20
-22.9490970311
 10
262.1586987089
 20
-23.0577467563
 10
263.750094708
 20
-23.2238325911
 10
265.3205260841
 20
-23.4467119819
 10
266.8639171434
 20
-23.7255226515
 10
268.3742968057
 20
-24.0591859356
 10
269.8458217055
 20
-24.4464109558
 10
271.2727987989
 20
-24.8856996137
 10
272.6497073886
 20
-25.3753523868
 10
273.9712204829
 20
-25.9134749038
 10
275.2322254042
 20
-26.497985273
 10
276.4278435696
 20
-27.1266221374
 10
277.5534493646
 20
-27.7969534232
 10
278.604688039
 20
-28.5063857487
 10
279.5774925547
 20
-29.2521744583
 10
280.4680993199
 20
-30.0314342401
 10
281.2730627502
 20
-30.8411502896
 10
281.9892685983
 20
-31.6781899725
 10
282.613946003
 20
-32.5393149451
 10
283.1446782088
 20
-33.421193682
 10
283.5794119158
 20
-34.3204143658
 10
283.9164652238
 20
-35.2334980863
 10
284.154534139
 20
-36.1569122999
 10
284.2926976191
 20
-37.0870844966
 10
284.331207237
 20
-37.9037001828
  0
ARC
  5
11E
330
1F
100
AcDbEntity
  8
0
  6
Continuous
 62
     1
370
    25
100
AcDbCircle
 10
246.5582667908
 20
-40.4938443186
 30
0.0
 40
14.76642998708004
100
AcDbArc
 50
116.6001416528
 51
159.9724167388
  0
ENDSEC
  0
SECTION
  2
OBJECTS
  0
DICTIONARY
  5
C
330
0
100
AcDbDictionary
281
     1
  3
ACAD_GROUP
350
D
  3
ACAD_LAYOUT
350
1A
  3
ACAD_MLINESTYLE
350
17
  3
ACAD_PLOTSETTINGS
350
19
  3
ACAD_PLOTSTYLENAME
350
E
  3
ACAD_SCALELIST
350
47
  3
DWGPROPS
350
11F
  0
DICTIONARY
  5
D
102
{ACAD_REACTORS
330
C
102
}
330
C
100
AcDbDictionary
281
     1
  0
DICTIONARY
  5
1A
102
{ACAD_REACTORS
330
C
102
}
330
C
100
AcDbDictionary
281
     1
  3
Layout1
350
1E
  3
Layout2
350
26
  3
Model
350
22
  0
DICTIONARY
  5
17
102
{ACAD_REACTORS
330
C
102
}
330
C
100
AcDbDictionary
281
     1
  3
Standard
350
18
  0
DICTIONARY
  5
19
102
{ACAD_REACTORS
330
C
102
}
330
C
100
AcDbDictionary
281
     1
  0
ACDBDICTIONARYWDFLT
  5
E
102
{ACAD_REACTORS
330
C
102
}
330
C
100
AcDbDictionary
281
     1
  3
Normal
350
F
100
AcDbDictionaryWithDefault
340
F
  0
DICTIONARY
  5
47
102
{ACAD_REACTORS
330
C
102
}
330
C
100
AcDbDictionary
281
     1
  3
A0
350
48
  3
A1
350
49
  3
A2
350
4A
  3
A3
350
4B
  3
A4
350
4C
  3
A5
350
4D
  3
A6
350
4E
  3
A7
350
4F
  3
A8
350
50
  3
A9
350
51
  3
B0
350
52
  3
B1
350
53
  3
B2
350
54
  3
B3
350
55
  3
B4
350
56
  3
B5
350
57
  3
B6
350
58
  3
B7
350
59
  3
B8
350
5A
  3
B9
350
5B
  3
C0
350
5C
  3
C1
350
5D
  3
C2
350
5E
  3
C3
350
5F
  3
C4
350
60
  3
C5
350
61
  3
C6
350
62
  3
C7
350
63
  3
C8
350
64
  3
C9
350
65
  3
D0
350
66
  3
D1
350
67
  3
D2
350
68
  0
XRECORD
  5
11F
102
{ACAD_REACTORS
330
C
102
}
330
C
100
AcDbXrecord
280
     1
  1
DWGPROPS COOKIE
  2

  3

  4

  6

  7

  8
b.kav
  9

300
=
301
=
302
=
303
=
304
=
305
=
306
=
307
=
308
=
309
=
 40
0.0
 41
2459741.479539803
 42
2459741.479539989
  1

 90
        0
  0
LAYOUT
  5
1E
102
{ACAD_REACTORS
330
1A
102
}
330
1A
100
AcDbPlotSettings
  1

  2
none_device
  4

  6

 40
0.0
 41
0.0
 42
0.0
 43
0.0
 44
0.0
 45
0.0
 46
0.0
 47
0.0
 48
0.0
 49
0.0
140
0.0
141
0.0
142
1.0
143
1.0
 70
   688
 72
     1
 73
     0
 74
     5
  7

 75
    16
147
1.0
148
0.0
149
0.0
100
AcDbLayout
  1
Layout1
 70
     1
 71
     1
 10
0.0
 20
0.0
 11
420.0
 21
297.0
 12
0.0
 22
0.0
 32
0.0
 14
1.0000000000E+20
 24
1.0000000000E+20
 34
1.0000000000E+20
 15
-1.0000000000E+20
 25
-1.0000000000E+20
 35
-1.0000000000E+20
146
0.0
 13
0.0
 23
0.0
 33
0.0
 16
1.0
 26
0.0
 36
0.0
 17
0.0
 27
1.0
 37
0.0
 76
     0
330
1B
  0
LAYOUT
  5
26
102
{ACAD_REACTORS
330
1A
102
}
330
1A
100
AcDbPlotSettings
  1

  2
none_device
  4

  6

 40
0.0
 41
0.0
 42
0.0
 43
0.0
 44
0.0
 45
0.0
 46
0.0
 47
0.0
 48
0.0
 49
0.0
140
0.0
141
0.0
142
1.0
143
1.0
 70
   688
 72
     1
 73
     0
 74
     5
  7

 75
    16
147
1.0
148
0.0
149
0.0
100
AcDbLayout
  1
Layout2
 70
     1
 71
     2
 10
0.0
 20
0.0
 11
0.0
 21
0.0
 12
0.0
 22
0.0
 32
0.0
 14
0.0
 24
0.0
 34
0.0
 15
0.0
 25
0.0
 35
0.0
146
0.0
 13
0.0
 23
0.0
 33
0.0
 16
1.0
 26
0.0
 36
0.0
 17
0.0
 27
1.0
 37
0.0
 76
     0
330
23
  0
LAYOUT
  5
22
102
{ACAD_REACTORS
330
1A
102
}
330
1A
100
AcDbPlotSettings
  1

  2
none_device
  4
Letter_(8.50_x_11.00_Inches)
  6

 40
6.35
 41
6.35
 42
6.35000508
 43
6.35000508
 44
215.9
 45
279.4
 46
0.0
 47
0.0
 48
0.0
 49
0.0
140
0.0
141
0.0
142
1.0
143
1.0
 70
  1712
 72
     1
 73
     0
 74
     0
  7

 75
     0
147
1.0
148
0.0
149
0.0
100
AcDbLayout
  1
Model
 70
     1
 71
     0
 10
0.0
 20
0.0
 11
279.4
 21
215.9
 12
0.0
 22
0.0
 32
0.0
 14
0.0
 24
0.0
 34
0.0
 15
279.4
 25
215.9
 35
0.0
146
0.0
 13
0.0
 23
0.0
 33
0.0
 16
1.0
 26
0.0
 36
0.0
 17
0.0
 27
1.0
 37
0.0
 76
     0
330
1F
331
29
  0
MLINESTYLE
  5
18
102
{ACAD_REACTORS
330
17
102
}
330
17
100
AcDbMlineStyle
  2
Standard
 70
     0
  3

 62
   256
 51
90.0
 52
90.0
 71
     2
 49
0.5
 62
   256
  6
BYLAYER
 49
-0.5
 62
   256
  6
BYLAYER
  0
ACDBPLACEHOLDER
  5
F
102
{ACAD_REACTORS
330
E
102
}
330
E
  0
SCALE
  5
48
102
{ACAD_REACTORS
330
47
102
}
330
47
100
AcDbScale
 70
     0
300
1:1
140
1.0
141
1.0
290
     1
  0
SCALE
  5
49
102
{ACAD_REACTORS
330
47
102
}
330
47
100
AcDbScale
 70
     0
300
1:2
140
1.0
141
2.0
290
     0
  0
SCALE
  5
4A
102
{ACAD_REACTORS
330
47
102
}
330
47
100
AcDbScale
 70
     0
300
1:4
140
1.0
141
4.0
290
     0
  0
SCALE
  5
4B
102
{ACAD_REACTORS
330
47
102
}
330
47
100
AcDbScale
 70
     0
300
1:5
140
1.0
141
5.0
290
     0
  0
SCALE
  5
4C
102
{ACAD_REACTORS
330
47
102
}
330
47
100
AcDbScale
 70
     0
300
1:8
140
1.0
141
8.0
290
     0
  0
SCALE
  5
4D
102
{ACAD_REACTORS
330
47
102
}
330
47
100
AcDbScale
 70
     0
300
1:10
140
1.0
141
10.0
290
     0
  0
SCALE
  5
4E
102
{ACAD_REACTORS
330
47
102
}
330
47
100
AcDbScale
 70
     0
300
1:16
140
1.0
141
16.0
290
     0
  0
SCALE
  5
4F
102
{ACAD_REACTORS
330
47
102
}
330
47
100
AcDbScale
 70
     0
300
1:20
140
1.0
141
20.0
290
     0
  0
SCALE
  5
50
102
{ACAD_REACTORS
330
47
102
}
330
47
100
AcDbScale
 70
     0
300
1:30
140
1.0
141
30.0
290
     0
  0
SCALE
  5
51
102
{ACAD_REACTORS
330
47
102
}
330
47
100
AcDbScale
 70
     0
300
1:40
140
1.0
141
40.0
290
     0
  0
SCALE
  5
52
102
{ACAD_REACTORS
330
47
102
}
330
47
100
AcDbScale
 70
     0
300
1:50
140
1.0
141
50.0
290
     0
  0
SCALE
  5
53
102
{ACAD_REACTORS
330
47
102
}
330
47
100
AcDbScale
 70
     0
300
1:100
140
1.0
141
100.0
290
     0
  0
SCALE
  5
54
102
{ACAD_REACTORS
330
47
102
}
330
47
100
AcDbScale
 70
     0
300
2:1
140
2.0
141
1.0
290
     0
  0
SCALE
  5
55
102
{ACAD_REACTORS
330
47
102
}
330
47
100
AcDbScale
 70
     0
300
4:1
140
4.0
141
1.0
290
     0
  0
SCALE
  5
56
102
{ACAD_REACTORS
330
47
102
}
330
47
100
AcDbScale
 70
     0
300
8:1
140
8.0
141
1.0
290
     0
  0
SCALE
  5
57
102
{ACAD_REACTORS
330
47
102
}
330
47
100
AcDbScale
 70
     0
300
10:1
140
10.0
141
1.0
290
     0
  0
SCALE
  5
58
102
{ACAD_REACTORS
330
47
102
}
330
47
100
AcDbScale
 70
     0
300
100:1
140
100.0
141
1.0
290
     0
  0
SCALE
  5
59
102
{ACAD_REACTORS
330
47
102
}
330
47
100
AcDbScale
 70
     0
300
1/128" = 1'-0"
140
0.0078125
141
12.0
290
     0
  0
SCALE
  5
5A
102
{ACAD_REACTORS
330
47
102
}
330
47
100
AcDbScale
 70
     0
300
1/64" = 1'-0"
140
0.015625
141
12.0
290
     0
  0
SCALE
  5
5B
102
{ACAD_REACTORS
330
47
102
}
330
47
100
AcDbScale
 70
     0
300
1/32" = 1'-0"
140
0.03125
141
12.0
290
     0
  0
SCALE
  5
5C
102
{ACAD_REACTORS
330
47
102
}
330
47
100
AcDbScale
 70
     0
300
1/16" = 1'-0"
140
0.0625
141
12.0
290
     0
  0
SCALE
  5
5D
102
{ACAD_REACTORS
330
47
102
}
330
47
100
AcDbScale
 70
     0
300
3/32" = 1'-0"
140
0.09375
141
12.0
290
     0
  0
SCALE
  5
5E
102
{ACAD_REACTORS
330
47
102
}
330
47
100
AcDbScale
 70
     0
300
1/8" = 1'-0"
140
0.125
141
12.0
290
     0
  0
SCALE
  5
5F
102
{ACAD_REACTORS
330
47
102
}
330
47
100
AcDbScale
 70
     0
300
3/16" = 1'-0"
140
0.1875
141
12.0
290
     0
  0
SCALE
  5
60
102
{ACAD_REACTORS
330
47
102
}
330
47
100
AcDbScale
 70
     0
300
1/4" = 1'-0"
140
0.25
141
12.0
290
     0
  0
SCALE
  5
61
102
{ACAD_REACTORS
330
47
102
}
330
47
100
AcDbScale
 70
     0
300
3/8" = 1'-0"
140
0.375
141
12.0
290
     0
  0
SCALE
  5
62
102
{ACAD_REACTORS
330
47
102
}
330
47
100
AcDbScale
 70
     0
300
1/2" = 1'-0"
140
0.5
141
12.0
290
     0
  0
SCALE
  5
63
102
{ACAD_REACTORS
330
47
102
}
330
47
100
AcDbScale
 70
     0
300
3/4" = 1'-0"
140
0.75
141
12.0
290
     0
  0
SCALE
  5
64
102
{ACAD_REACTORS
330
47
102
}
330
47
100
AcDbScale
 70
     0
300
1" = 1'-0"
140
1.0
141
12.0
290
     0
  0
SCALE
  5
65
102
{ACAD_REACTORS
330
47
102
}
330
47
100
AcDbScale
 70
     0
300
1-1/2" = 1'-0"
140
1.5
141
12.0
290
     0
  0
SCALE
  5
66
102
{ACAD_REACTORS
330
47
102
}
330
47
100
AcDbScale
 70
     0
300
3" = 1'-0"
140
3.0
141
12.0
290
     0
  0
SCALE
  5
67
102
{ACAD_REACTORS
330
47
102
}
330
47
100
AcDbScale
 70
     0
300
6" = 1'-0"
140
6.0
141
12.0
290
     0
  0
SCALE
  5
68
102
{ACAD_REACTORS
330
47
102
}
330
47
100
AcDbScale
 70
     0
300
1'-0" = 1'-0"
140
12.0
141
12.0
290
     0
  0
ENDSEC
  0
EOF
